E-Chords
After Forever

Leaden Legacy(Tabs)

After Forever

Key: D
>Tune down to D 
h = hammer 
p = pick 
. = palm mute 
~ = hold note for a second 
/ = forward slide 
\ = backward slide 
 
Intro (lots of keyboard first) 
 
riff A 
d|--------------------------------------------------------| 
A|--------------------------------------------------------| 
F|--------------------------------------------------------| 
C|-------------------------------------------------8--8h9-| 
G|-11-13p----11p9-------------9h11-11p9h11-9h11-11--------| 
D|-------12--------12-11---12-----------------------------| 
 
d|--------------------------------------------------------| 
A|--------------------------------------------------------| 
F|--------------------------------------------------------| 
C|-------------------------------------------------8--8h9-| 
G|-11-13p----11p9-------------9h11-11p9h11-9h11-11--------| 
D|-------12--------12-11---12-----------------------------| 
 
Riff B 
d|--------------------------------------------------------| 
A|--------------------------------------------------------| 
F|--------------------------------------------------------| 
C|--------------------------------------------------------| 
G|-11--11--11--11--11--11--11--11---11--11-11-11-11-12----| 
D|--9---9---9---9---9---9---9---9----9---9--9--9--9-10----| 
    .   .   .   .   .   .   .   .    .   .  .  .  . 
 
d|--------------------------------------------------------| 
A|--------------------------------------------------------| 
F|--------------------------------------------------------| 
C|--------------------------------------------------------| 
G|-11--11--11--11--11--11--11--11---11--11-11-11-11-12----| 
D|--9---9---9---9---9---9---9---9----9---9--9--9--9-10----| 
    .   .   .   .   .   .   .   .    .   .  .  .  . 
 
d|--------------------------------------------------------| 
A|--------------------------------------------------------| 
F|--------------------------------------------------------| 
C|--------------------------------------------------------| 
G|-11--11--11--11--11--11--11--11---11--11-11-11-11-12----| 
D|--9---9---9---9---9---9---9---9----9---9--9--9--9-10----| 
    .   .   .   .   .   .   .   .    .   .  .  .  . 
 
d|--------------------------------------------------------| 
A|--------------------------------------------------------| 
F|--------------------------------------------------------| 
C|--------------------------------------------------------| 
G|-11--11--11--11--11--11--11--11---11--11-11-11-11-12--11| 
D|--9---9---9---9---9---9---9---9----9---9--9--9--9-10---9| 
    .   .   .   .   .   .   .   .    .   .  .  .  . 
 
riff A 
d|--------------------------------------------------------| 
A|--------------------------------------------------------| 
F|--------------------------------------------------------| 
C|-------------------------------------------------8--8h9-| 
G|-11-13p----11p9-------------9h11-11p9h11-9h11-11--------| 
D|-------12--------12-11---12-----------------------------| 
 
d|--------------------------------------------------------| 
A|--------------------------------------------------------| 
F|--------------------------------------------------------| 
C|-------------------------------------------------8--8h9-| 
G|-11-13p----11p9-------------9h11-11p9h11-9h11-11--------| 
D|-------12--------12-11---12-----------------------------| 
 
Riff B 
d|--------------------------------------------------------| 
A|--------------------------------------------------------| 
F|--------------------------------------------------------| 
C|--------------------------------------------------------| 
G|-11--11--11--11--11--11--11--11---11--11-11-11-11-12----| 
D|--9---9---9---9---9---9---9---9----9---9--9--9--9-10----| 
    .   .   .   .   .   .   .   .    .   .  .  .  . 
 
d|--------------------------------------------------------| 
A|--------------------------------------------------------| 
F|--------------------------------------------------------| 
C|--------------------------------------------------------| 
G|-11--11--11--11--11--11--11--11---11--11-11-11-11-12----| 
D|--9---9---9---9---9---9---9---9----9---9--9--9--9-10----| 
    .   .   .   .   .   .   .   .    .   .  .  .  . 
 
d|--------------------------------------------------------| 
A|--------------------------------------------------------| 
F|--------------------------------------------------------| 
C|--------------------------------------------------------| 
G|-11--11--11--11--11--11--11--11---11--11-11-11-11-12----| 
D|--9---9---9---9---9---9---9---9----9---9--9--9--9-10----| 
    .   .   .   .   .   .   .   .    .   .  .  .  . 
 
d|--------------------------------------------------------| 
A|--------------------------------------------------------| 
F|--------------------------------------------------------| 
C|--------------------------------------------------------| 
G|-11--11--11--11--11--11--11--11---11--11-11-11-11-12--11| 
D|--9---9---9---9---9---9---9---9----9---9--9--9--9-10---9| 
    .   .   .   .   .   .   .   .    .   .  .  .  . 
 
Riff C 
d|--------------------------------------------------------| 
A|--------------------------------------------------------| 
F|--------------------------------------------------------| 
C|--------------------------------------------------------| 
G|---------11p10----------10p9----------9p8---------------| 
D|-9-9-9-9--------8-8-8-8-------7-7-7-7------9-8-7-6------| 
   . . . .        . . . .       . . . .      . . . . 
 
d|--------------------------------------------------------| 
A|--------------------------------------------------------| 
F|--------------------------------------------------------| 
C|--------------------------------------------------------| 
G|---------11p10----------10p9----------9p8---------------| 
D|-9-9-9-9--------8-8-8-8-------7-7-7-7------9-8-7-6------| 
   . . . .        . . . .       . . . .      . . . . 
 
Riff D 
d|--------------------------------------------------------| 
A|--------------------------------------------------------| 
F|--------------------------------------------------------| 
C|--------------------------------------------------------| 
G|------------8p7--------------------8p7------------------| 
D|-9---8---7------8p7-----9---8---7------8p7--------------| 
 
Riff E 
d|--------------------------------------------------------| 
A|--------------------------------------------------------| 
F|--------------------------------------------------------| 
C|--------------------------------------------------------| 
G|--------------------------------------------------------| 
D|-9-9-9-8-8-8-9-9-9-8-8-8-9-9-9-12-12-12-11-11-11-8-8----| 
  p.m................................................. 
 
d|---------------------------------------------------------| 
A|---------------------------------------------------------| 
F|---------------------------------------------------------| 
C|---------------------------------------------------------| 
G|---------------------------------------------------------| 
D|-9-9-9-8-8-8-9-9-9-11-11-11-12-12-12-11-11-11-8-8-8-9-9-9| 
  p.m...................................................... 
 
d|--------------------------------------------------------| 
A|--------------------------------------------------------| 
F|--------------------------------------------------------| 
C|--------------------------------------------------------| 
G|--------------------------------------------------------| 
D|-9-9-9-8-8-8-9-9-9-8-8-8-9-9-9-12-12-12-11-11-11-8-8----| 
  p.m................................................. 
 
d|--------------------------------------------------------| 
A|--------------------------------------------------------| 
F|--------------------------------------------------------| 
C|--------------------------------------------------------| 
G|--------------------------------------------------------| 
D|-9-9-9-8-8-8-9-9-9-11-11-11-12-12-12-11-11-11-8-8-8--9--| 
  p.m................................................ 
 
Riff F 
d|--------------------------------------------------------| 
A|--------------------------------------------------------| 
F|--------------------------------------------------------| 
C|--------------------------------------------------------| 
G|-11--11--11--11----------11-----------------------------| 
D|--9---9---9---9---9-9-9---9-----------------------------| 
    .   .   .   .   . . . 
 
Riff G 
d|--------------------------------------------------------| 
A|--------------------------------------------------------| 
F|--------------------------------------------------------| 
C|--------------------------------------------------------| 
G|-12-12-12---12-12-12---12-12-12---12-12-12--------------| 
D|-10-10-10---10-10-10---10-10-10---10-10-10--------------| 
    .  .  .    .  .  .    .  .  .    .  .  . 
 
d|--------------------------------------------------------| 
A|--------------------------------------------------------| 
F|--------------------------------------------------------| 
C|--------------------------------------------------------| 
G|-12-12-12---12-12-12---12-12-12---12-12-12--------------| 
D|-10-10-10---10-10-10---10-10-10---10-10-10--------------| 
    .  .  .    .  .  .    .  .  .    .  .  . 
 
d|--------------------------------------------------------| 
A|--------------------------------------------------------| 
F|--------------------------------------------------------| 
C|--------------------------------------------------------| 
G|-12-12-12---12-12-12---12-12-12---12-12-12--------------| 
D|-10-10-10---10-10-10---10-10-10---10-10-10--------------| 
    .  .  .    .  .  .    .  .  .    .  .  . 
 
Riff H 
d|--------------------------------------------------------| 
A|--------------------------------------------------------| 
F|--------------------------------------------------------| 
C|--------------------------------------------------------| 
G|-12-14-15-16-18~------18-16-15-14-12~-------------------| 
D|-10-12-13-14-16-------16-14-13-12-10--------------------| 
 
riff A 
d|--------------------------------------------------------| 
A|--------------------------------------------------------| 
F|--------------------------------------------------------| 
C|-------------------------------------------------8--8h9-| 
G|-11-13p----11p9-------------9h11-11p9h11-9h11-11--------| 
D|-------12--------12-11---12-----------------------------| 
 
d|--------------------------------------------------------| 
A|--------------------------------------------------------| 
F|--------------------------------------------------------| 
C|-------------------------------------------------8--8h9-| 
G|-11-13p----11p9-------------9h11-11p9h11-9h11-11--------| 
D|-------12--------12-11---12-----------------------------| 
 
Riff I 
d|--------------------------------------------------------------| 
A|--------------------------------------------------------------| 
F|--------------------------------------------------------------| 
C|----------------------------------------------------10--10h11-| 
G|-13-15p----13p11------------11h13-13p11h13-11h13-13-----------| 
D|-------14--------14-13---14-----------------------------------| 
 
d|--------------------------------------------------------------| 
A|--------------------------------------------------------------| 
F|--------------------------------------------------------------| 
C|----------------------------------------------------10--10h11-| 
G|-13-15p----13p11------------11h13-13p11h13-11h13-13-----------| 
D|-------14--------14-13---14-----------------------------------| 
 
d|--------------------------------------------------------------| 
A|--------------------------------------------------------------| 
F|--------------------------------------------------------------| 
C|----------------------------------------------------10--10h11-| 
G|-13-15p----13p11------------11h13-13p11h13-11h13-13-----------| 
D|-------14--------14-13---14-----------------------------------| 
 
d|--------------------------------------------------------------| 
A|--------------------------------------------------------------| 
F|--------------------------------------------------------------| 
C|--------------------------------------------------------------| 
G|-13-15p----13p11------------11h13-13p11h13-11h13-13(missing)--| 
D|-------14--------14-13---14-----------------------------------| 
 
 
 
_______________________________________________________ 
Contribuição: Leny([email protected]) 

roll up this ad to continue

share this page

See Also: