E-Chords
After Forever

Equally Destructive(Tabs)

After Forever

(Guitarra 1) 

(intro) 
E|--------------------------|-----------------------|-------------------| 
B|--------------------------|-----------------------|-------------------| 
G|--------------------------|-----------------------|-------------------| 
D|--0--3--2--0--3--0--0--8--|--L--7--0--------------|-------------------| 
A|--0--3--2--0--3--0--0--8--|--L--7--0--------------|-------------------| 
D|--0--3--2--0--3--0--0--8--|--L--7--0--------------|-------------------| 

-------------------|--------------------------|-----------------------| 
-------------------|--------------------------|-----------------------| 
-------------------|--------------------------|-----------------------| 
-------------------|--0--3--2--0--3--0--0--8--|--L--7--0--------------| 
-------------------|--0--3--2--0--3--0--0--8--|--L--7--0--------------| 
-------------------|--0--3--2--0--3--0--0--8--|--L--7--0--------------| 

-------------------|----------------------||---------------------------| 
-------------------|----------------------||---------------------------| 
-------------------|----------------------||*--------------------------| 
-------------------|---------------/x\----||*--0--3--2--0--3--0--0--8--| 
-------------------|---------------/x\----||---0--3--2--0--3--0--0--8--| 
-------------------|---------------/x\----||---0--3--2--0--3--0--0--8--| 

-----------------------------|---------------------------| 
-----------------------------|---------------------------| 
-------------10--12--12--12--|--9----9----9--10--10--10--| 
--L--7--0-----x---x---x---x--|--x----x----x---x---x---x--| 
--L--7--0-----8--10--10--10--|--7----7----7---8---8---8--| 
--L--7--0--------------------|---------------------------| 

-----------------------||----------------------|---------------------| 
-----------------------||----------------------|---------------------| 
--9------5S------9----*||--10------9------5----|--L--3--L------------| 
--x------x-------x----*||----------------------|---------------------| 
--7------3S------7-----||---8------7------3----|--L--1--L------------| 
-----------------------||----------------------|---------------------| 

                                          (verso) 
----------------------|-------------------|-------------------| 
----------------------|-------------------|-------------------| 
--10------9------6----|--L----------------|-------------------| 
----------------------|-------------------|-------------------| 
---8------7------4----|--L----------------|-------------------| 
----------------------|-------------------|-------------------| 

-------------------|-------------------|-------------------|-------------------| 
-------------------|-------------------|-------------------|-------------------| 
-------------------|-------------------|-------------------|-------------------| 
-------------------|-------------------|-------------------|-------------------| 
-------------------|-------------------|-------------------|-------------------| 
-------------------|-------------------|-------------------|-------------------| 

-------------------|-------------------|-----------------------| 
-------------------|-------------------|-----------------------| 
-------------------|-------------------|-----------------------| 
-------------------|-------------------|------------------/x\--| 
-------------------|-------------------|------------------/x\--| 
-------------------|-------------------|------------------/x\--| 

-------------------------|-------------------|-------------------| 
-------------------------|-------------------|-------------------| 
-------------------------|-------------------|-------------------| 
--0--3--2--0--3--0-------|-------------------|-------------------| 
--0--3--2--0--3--0-------|-------------------|-------------------| 
--0--3--2--0--3--0-------|-------------------|-------------------| 

-------------------|-------------------------|-------------------| 
-------------------|-------------------------|-------------------| 
-------------------|-------------------------|-------------------| 
-------------------|--0--3--2--0--3--0-------|-------------------| 
-------------------|--0--3--2--0--3--0-------|-------------------| 
-------------------|--0--3--2--0--3--0-------|-------------------| 

-------------------------|--------------------------|---------------------| 
-------------------------|--------------------------|---------------------| 
-------------------------|--------------------2--2--|--3--3---------------| 
--0--3--2--0--3--0----0--|--L--3--2--0--3--0--2--2--|--3--3---------------| 
--0--3--2--0--3--0----0--|--L--3--2--0--3--0--0--0--|--1--1---------------| 
--0--3--2--0--3--0----0--|--L--3--2--0--3--0--------|---------------------| 

-------------------|-------------------|----------------------| 
-------------------|-------------------|----------------------| 
-------------------|-------------------|----------------------| 
-------------------|-------------------|---------------/x\----| 
-------------------|-------------------|---------------/x\----| 
-------------------|-------------------|---------------/x\----| 

(Refrão) 
|---------------------------|-----------------------------| 
|---------------------------|-----------------------------| 
|*--------------------------|-------------10--12--12--12--| 
|*--0--3--2--0--3--0--0--8--|--L--7--0-----x---x---x---x--| 
|---0--3--2--0--3--0--0--8--|--L--7--0-----8--10--10--10--| 
|---0--3--2--0--3--0--0--8--|--L--7--0--------------------| 

---------------------------|-----------------------||----------------------| 
---------------------------|-----------------------||----------------------| 
--9----9----9--10--10--10--|--9------5S------9----*||--10------9------5----| 
--x----x----x---x---x---x--|--x------x-------x----*||----------------------| 
--7----7----7---8---8---8--|--7------3S------7-----||---8------7------3----| 
---------------------------|-----------------------||----------------------| 

---------------------|----------------------|-------------------| 
---------------------|----------------------|-------------------| 
--L--3--L------------|--10------9------6----|--L----------------| 
---------------------|----------------------|-------------------| 
--L--1--L------------|---8------7------4----|--L----------------| 
---------------------|----------------------|-------------------| 

(verso) 
-------------------------|--------------------------|-------------------------| 
-------------------------|--------------------------|-------------------------| 
-------------------------|--------------------------|-------------------------| 
--0--3--2--0--3--0-------|--------------------------|--0--3--2--0--3--0-------| 
--0--3--2--0--3--0-------|-----0--0-----0--0-----0--|--0--3--2--0--3--0-------| 
--0--3--2--0--3--0-------|-----0--0-----0--0-----0--|--0--3--2--0--3--0-------| 

--------------------------|-------------------------|--------------------------| 
--------------------------|-------------------------|--------------------------| 
--------------------------|-------------------------|--------------------------| 
--------------------------|--0--3--2--0--3--0-------|--------------------------| 
-----0--0-----0--0-----0--|--0--3--2--0--3--0-------|-----0--0-----0--0-----0--| 
-----0--0-----0--0-----0--|--0--3--2--0--3--0-------|-----0--0-----0--0-----0--| 

-------------------------|--------------------------|--------------------------| 
-------------------------|--------------------------|--------------------------| 
-------------------------|--------------------2--2--|--------------------------| 
--0--3--2--0--3--0----0--|--L--3--2--0--3--0--2--2--|--0--3--2--0--3--0--------| 
--0--3--2--0--3--0----0--|--L--3--2--0--3--0--0--0--|--0--3--2--0--3--0-----0--| 
--0--3--2--0--3--0----0--|--L--3--2--0--3--0--------|--0--3--2--0--3--0-----0--| 

--------------------------|--------------------------| 
--------------------------|--------------------------| 
--------------------------|--------------------------| 
--------------------------|--0--3--2--0--3--0--------| 
-----0-----0-----0-----0--|--0--3--2--0--3--0-----0--| 
-----0-----0-----0-----0--|--0--3--2--0--3--0-----0--| 

--------------------------|--------------------------| 
--------------------------|--------------------------| 
--------------------------|--------------------------| 
--------------------------|--0--3--2--0--3--0--------| 
-----0-----0-----0-----0--|--0--3--2--0--3--0-----0--| 
-----0-----0-----0-----0--|--0--3--2--0--3--0-----0--| 

--------------------------|-------------------------|--------------------------| 
--------------------------|-------------------------|--------------------------| 
--------------------------|-------------------------|--------------------2--2--| 
--------------------------|--0--3--2--0--3--0----0--|--L--3--2--0--3--0--2--2--| 
-----0-----0-----0-----0--|--0--3--2--0--3--0----0--|--L--3--2--0--3--0--0--0--| 
-----0-----0-----0-----0--|--0--3--2--0--3--0----0--|--L--3--2--0--3--0--------| 

---------------------|-------------------|-------------------| 
---------------------|-------------------|-------------------| 
--3--3---------------|-------------------|-------------------| 
--3--3---------------|-------------------|-------------------| 
--1--1---------------|-------------------|-------------------| 
---------------------|-------------------|-------------------| 

-------------------|-------------------|-------------------|-------------------| 
-------------------|-------------------|-------------------|-------------------| 
-------------------|-------------------|-------------------|-------------------| 
-------------------|-------------------|-------------------|-------------------| 
-------------------|-------------------|-------------------|-------------------| 
-------------------|-------------------|-------------------|-------------------| 

                   (ponte) 
-------------------|-------------------------|--------------------------| 
-------------------|-------------------------|--------------------------| 
-------------------|-------------------------|--------------------8--8--| 
-------------------|--0--3--2--0--3--0----0--|--L--3--2--0--3--0--x--x--| 
-------------------|--0--3--2--0--3--0----0--|--L--3--2--0--3--0--6--6--| 
-------------------|--0--3--2--0--3--0----0--|--L--3--2--0--3--0--------| 

-------------------------|--------------------------|-------------------------| 
-------------------------|--------------------------|-------------------------| 
-------------------------|--------------8--8--7--7--|-------------------------| 
--0--3--2--0--3--0----0--|--L--3--2--0--x--x--x--x--|--0--3--2--0--3--0----0--| 
--0--3--2--0--3--0----0--|--L--3--2--0--6--6--5--5--|--0--3--2--0--3--0----0--| 
--0--3--2--0--3--0----0--|--L--3--2--0--------------|--0--3--2--0--3--0----0--| 

--------------------------|-------------------------|--------------------------| 
--------------------------|-------------------------|--------------------------| 
--------------------8--8--|-------------------------|--------------8--8--7--7--| 
--L--3--2--0--3--0--x--x--|--0--3--2--0--3--0----0--|--L--3--2--0--x--x--x--x--| 
--L--3--2--0--3--0--6--6--|--0--3--2--0--3--0----0--|--L--3--2--0--6--6--5--5--| 
--L--3--2--0--3--0--------|--0--3--2--0--3--0----0--|--L--3--2--0--------------| 

(solo) 
---------------------------|---------------------------| 
--11~------10~-------------|--11~------10~-------------| 
--------------------10~----|--------------------10~----| 
---------------------------|---------------------------| 
---------------------------|---------------------------| 
---------------------------|---------------------------| 

----------------------------|----------------------------| 
----------------------------|----------------------------| 
--12~----14~--14~--L--------|--15~----17~--17~--L--------| 
----------------------------|----------------------------| 
----------------------------|----------------------------| 
----------------------------|----------------------------| 

---------------------------|---------------------------| 
--11~------10~-------------|--11~------10~-------------| 
--------------------10~----|--------------------10~----| 
---------------------------|---------------------------| 
---------------------------|---------------------------| 
---------------------------|---------------------------| 

---------------------------|--------------------------| 
--13~------11~------10~----|--------------------------| 
---------------------------|--12~------10~------9~----| 
---------------------------|--------------------------| 
---------------------------|--------------------------| 
---------------------------|--------------------------| 

---------------------------|---------------------------| 
--11~------10~-------------|--11~------10~-------------| 
--------------------10~----|--------------------10~----| 
---------------------------|---------------------------| 
---------------------------|---------------------------| 
---------------------------|---------------------------| 

----------------------------|----------------------------| 
----------------------------|----------------------------| 
--12~----14~--14~--L--------|--15~----17~--17~--L--------| 
----------------------------|----------------------------| 
----------------------------|----------------------------| 
----------------------------|----------------------------| 

------------------------------|------------------------------| 
------------------------------|------------------------------| 
--17~--19~------15~--15~------|--17~--17~------14~--14~------| 
------------------------------|------------------------------| 
------------------------------|------------------------------| 
------------------------------|------------------------------| 

------------------------------|-----------------------| 
------------------------------|-----------------------| 
--15~--15~------12~--12~------|--<>10~----------------| 
------------------------------|-----------------------| 
------------------------------|-----------------------| 
------------------------------|-----------------------| 

(Refrão) 
|---------------------------|-----------------------------| 
|---------------------------|-----------------------------| 
|*--------------------------|-------------10--12--12--12--| 
|*--0--3--2--0--3--0--0--8--|--L--7--0-----x---x---x---x--| 
|---0--3--2--0--3--0--0--8--|--L--7--0-----8--10--10--10--| 
|---0--3--2--0--3--0--0--8--|--L--7--0--------------------| 
                                                (3x) 
---------------------------|-----------------------||----------------------| 
---------------------------|-----------------------||----------------------| 
--9----9----9--10--10--10--|--9------5S------9----*||--10------9------5----| 
--x----x----x---x---x---x--|--x------x-------x----*||----------------------| 
--7----7----7---8---8---8--|--7------3S------7-----||---8------7------3----| 
---------------------------|-----------------------||----------------------| 

---------------------|----------------------|-------------------| 
---------------------|----------------------|-------------------| 
--L--3--L------------|--10------9------6----|--L----------------| 
---------------------|----------------------|-------------------| 
--L--1--L------------|---8------7------4----|--L----------------| 
---------------------|----------------------|-------------------| 

|---------------------------|-----------------------------| 
|---------------------------|-----------------------------| 
|*--------------------------|-------------10--12--12--12--| 
|*--0--3--2--0--3--0--0--8--|--L--7--0-----x---x---x---x--| 
|---0--3--2--0--3--0--0--8--|--L--7--0-----8--10--10--10--| 
|---0--3--2--0--3--0--0--8--|--L--7--0--------------------| 

---------------------------|-----------------------||----------------------| 
---------------------------|-----------------------||----------------------| 
--9----9----9--10--10--10--|--9------5S------9----*||--10------9------5----| 
--x----x----x---x---x---x--|--x------x-------x----*||----------------------| 
--7----7----7---8---8---8--|--7------3S------7-----||---8------7------3----| 
---------------------------|-----------------------||----------------------| 

---------------------|----------------------|-------------------| 
---------------------|----------------------|-------------------| 
--L--3--L------------|--10------9------6----|--L----------------| 
---------------------|----------------------|-------------------| 
--L--1--L------------|---8------7------4----|--L----------------| 
---------------------|----------------------|-------------------| 

(outro) 
-------------------------|-------------------------|| 
-------------------------|-------------------------|| 
-------------------------|-------------------------|| 
--0--3--2--0--3--0----0--|--L--3--2--0--3--0-------|| 
--0--3--2--0--3--0----0--|--L--3--2--0--3--0-------|| 
--0--3--2--0--3--0----0--|--L--3--2--0--3--0-------|| 


(Guitarra 2) 

(intro) 
E|--------------------------|-----------------------|-------------------| 
B|--------------------------|-----------------------|-------------------| 
G|--------------------------|-----------------------|-------------------| 
D|--0--3--2--0--3--0--0--8--|--L--7--0--------------|-------------------| 
A|--0--3--2--0--3--0--0--8--|--L--7--0--------------|-------------------| 
D|--0--3--2--0--3--0--0--8--|--L--7--0--------------|-------------------| 

-------------------|--------------------------|-----------------------| 
-------------------|--------------------------|-----------------------| 
-------------------|--------------------------|-----------------------| 
-------------------|--0--3--2--0--3--0--0--8--|--L--7--0--------------| 
-------------------|--0--3--2--0--3--0--0--8--|--L--7--0--------------| 
-------------------|--0--3--2--0--3--0--0--8--|--L--7--0--------------| 

-------------------|----------------------||---------------------------| 
-------------------|----------------------||---------------------------| 
-------------------|----------------------||*--------------------------| 
-------------------|---------------/x\----||*--0--3--2--0--3--0--0--8--| 
-------------------|---------------/x\----||---0--3--2--0--3--0--0--8--| 
-------------------|---------------/x\----||---0--3--2--0--3--0--0--8--| 

-------------------------|-------------------|--------------------|| 
-------------------------|-------------------|--------------------|| 
-------------------------|--5----------------|-------------------*|| 
--L--7--0----3--5--5--5--|--5----------------|--2----------------*|| 
--L--7--0----3--5--5--5--|--3----------------|--2-----------------|| 
--L--7--0----3--5--5--5--|-------------------|--2-----------------|| 

-------------------|-------------------|-------------------|-------------------| 
-------------------|-------------------|-------------------|-------------------| 
-------------------|-------------------|-------------------|-------------------| 
--5----------------|--L----------------|--7----------------|--L----------------| 
--5----------------|--L----------------|--7----------------|--L----------------| 
--5----------------|--L----------------|--7----------------|--L----------------| 

(verso) 
-------------------|-------------------|-------------------|-------------------| 
-------------------|-------------------|-------------------|-------------------| 
-------------------|-------------------|-------------------|-------------------| 
-------------------|-------------------|-------------------|-------------------| 
-------------------|-------------------|-------------------|-------------------| 
-------------------|-------------------|-------------------|-------------------| 

-------------------|-------------------|-------------------| 
-------------------|-------------------|-------------------| 
-------------------|-------------------|-------------------| 
-------------------|-------------------|-------------------| 
-------------------|-------------------|-------------------| 
-------------------|-------------------|-------------------| 

-----------------------|-------------------------|-------------------| 
-----------------------|-------------------------|-------------------| 
-----------------------|-------------------------|-------------------| 
------------------/x\--|--0--3--2--0--3--0-------|-------------------| 
------------------/x\--|--0--3--2--0--3--0-------|-------------------| 
------------------/x\--|--0--3--2--0--3--0-------|-------------------| 

-------------------|-------------------|-------------------------| 
-------------------|-------------------|-------------------------| 
-------------------|-------------------|-------------------------| 
-------------------|-------------------|--0--3--2--0--3--0-------| 
-------------------|-------------------|--0--3--2--0--3--0-------| 
-------------------|-------------------|--0--3--2--0--3--0-------| 

-------------------|-------------------------|--------------------------| 
-------------------|-------------------------|--------------------------| 
-------------------|-------------------------|--------------------2--2--| 
-------------------|--0--3--2--0--3--0----0--|--L--3--2--0--3--0--2--2--| 
-------------------|--0--3--2--0--3--0----0--|--L--3--2--0--3--0--0--0--| 
-------------------|--0--3--2--0--3--0----0--|--L--3--2--0--3--0--------| 

---------------------|-------------------|-------------------| 
---------------------|-------------------|-------------------| 
--3--3---------------|-------------------|-------------------| 
--3--3---------------|-------------------|-------------------| 
--1--1---------------|-------------------|-------------------| 
---------------------|-------------------|-------------------| 

                       (Refrão) 
----------------------||---------------------------|-------------------------| 
----------------------||---------------------------|-------------------------| 
----------------------||*--------------------------|-------------------------| 
---------------/x\----||*--0--3--2--0--3--0--0--8--|--L--7--0----3--5--5--5--| 
---------------/x\----||---0--3--2--0--3--0--0--8--|--L--7--0----3--5--5--5--| 
---------------/x\----||---0--3--2--0--3--0--0--8--|--L--7--0----3--5--5--5--| 
                                     (3x) 
-------------------|--------------------||-------------------| 
-------------------|--------------------||-------------------| 
--5----------------|-------------------*||-------------------| 
--5----------------|--2----------------*||--5----------------| 
--3----------------|--2-----------------||--5----------------| 
-------------------|--2-----------------||--5----------------| 

-------------------|-------------------|-------------------| 
-------------------|-------------------|-------------------| 
-------------------|-------------------|-------------------| 
--L----------------|--7----------------|--L----------------| 
--L----------------|--7----------------|--L----------------| 
--L----------------|--7----------------|--L----------------| 

(verso) 
-------------------------|--------------------------|-------------------------| 
-------------------------|--------------------------|-------------------------| 
-------------------------|--------------------------|-------------------------| 
--0--3--2--0--3--0-------|--------------------------|--0--3--2--0--3--0-------| 
--0--3--2--0--3--0-------|-----0--0-----0--0-----0--|--0--3--2--0--3--0-------| 
--0--3--2--0--3--0-------|-----0--0-----0--0-----0--|--0--3--2--0--3--0-------| 

--------------------------|-------------------------|--------------------------| 
--------------------------|-------------------------|--------------------------| 
--------------------------|-------------------------|--------------------------| 
--------------------------|--0--3--2--0--3--0-------|--------------------------| 
-----0--0-----0--0-----0--|--0--3--2--0--3--0-------|-----0--0-----0--0-----0--| 
-----0--0-----0--0-----0--|--0--3--2--0--3--0-------|-----0--0-----0--0-----0--| 

-------------------------|--------------------------|--------------------------| 
-------------------------|--------------------------|--------------------------| 
-------------------------|--------------------2--2--|--------------------------| 
--0--3--2--0--3--0----0--|--L--3--2--0--3--0--2--2--|--0--3--2--0--3--0--------| 
--0--3--2--0--3--0----0--|--L--3--2--0--3--0--0--0--|--0--3--2--0--3--0-----0--| 
--0--3--2--0--3--0----0--|--L--3--2--0--3--0--------|--0--3--2--0--3--0-----0--| 

--------------------------|--------------------------| 
--------------------------|--------------------------| 
--------------------------|--------------------------| 
--------------------------|--0--3--2--0--3--0--------| 
-----0-----0-----0-----0--|--0--3--2--0--3--0-----0--| 
-----0-----0-----0-----0--|--0--3--2--0--3--0-----0--| 

--------------------------|--------------------------| 
--------------------------|--------------------------| 
--------------------------|--------------------------| 
--------------------------|--0--3--2--0--3--0--------| 
-----0-----0-----0-----0--|--0--3--2--0--3--0-----0--| 
-----0-----0-----0-----0--|--0--3--2--0--3--0-----0--| 

--------------------------|-------------------------|--------------------------| 
--------------------------|-------------------------|--------------------------| 
--------------------------|-------------------------|--------------------2--2--| 
--------------------------|--0--3--2--0--3--0----0--|--L--3--2--0--3--0--2--2--| 
-----0-----0-----0-----0--|--0--3--2--0--3--0----0--|--L--3--2--0--3--0--0--0--| 
-----0-----0-----0-----0--|--0--3--2--0--3--0----0--|--L--3--2--0--3--0--------| 

---------------------|-------------------|-------------------| 
---------------------|-------------------|-------------------| 
--3--3---------------|-------------------|-------------------| 
--3--3---------------|-------------------|-------------------| 
--1--1---------------|-------------------|-------------------| 
---------------------|-------------------|-------------------| 

-------------------|-------------------|-------------------|-------------------| 
-------------------|-------------------|-------------------|-------------------| 
-------------------|-------------------|-------------------|-------------------| 
-------------------|-------------------|-------------------|-------------------| 
-------------------|-------------------|-------------------|-------------------| 
-------------------|-------------------|-------------------|-------------------| 

                   (ponte) 
-------------------|-------------------------|--------------------------| 
-------------------|-------------------------|--------------------------| 
-------------------|-------------------------|--------------------8--8--| 
-------------------|--0--3--2--0--3--0----0--|--L--3--2--0--3--0--x--x--| 
-------------------|--0--3--2--0--3--0----0--|--L--3--2--0--3--0--6--6--| 
-------------------|--0--3--2--0--3--0----0--|--L--3--2--0--3--0--------| 

-------------------------|--------------------------|-------------------------| 
-------------------------|--------------------------|-------------------------| 
-------------------------|--------------8--8--7--7--|-------------------------| 
--0--3--2--0--3--0----0--|--L--3--2--0--x--x--x--x--|--0--3--2--0--3--0----0--| 
--0--3--2--0--3--0----0--|--L--3--2--0--6--6--5--5--|--0--3--2--0--3--0----0--| 
--0--3--2--0--3--0----0--|--L--3--2--0--------------|--0--3--2--0--3--0----0--| 

--------------------------|-------------------------|--------------------------| 
--------------------------|-------------------------|--------------------------| 
--------------------8--8--|-------------------------|--------------8--8--7--7--| 
--L--3--2--0--3--0--x--x--|--0--3--2--0--3--0----0--|--L--3--2--0--x--x--x--x--| 
--L--3--2--0--3--0--6--6--|--0--3--2--0--3--0----0--|--L--3--2--0--6--6--5--5--| 
--L--3--2--0--3--0--------|--0--3--2--0--3--0----0--|--L--3--2--0--------------| 

(solo) 
-------------------|-------------------|-------------------|-------------------| 
-------------------|-------------------|-------------------|-------------------| 
-------------------|-------------------|--5----------------|--3----------------| 
--0----------------|--0----------------|--5----------------|--3----------------| 
--0----------------|--0----------------|--3----------------|--1----------------| 
--0----------------|--0----------------|-------------------|-------------------| 

-------------------|-------------------|-------------------|-------------------| 
-------------------|-------------------|-------------------|-------------------| 
-------------------|-------------------|--5----------------|--3----------------| 
--0----------------|--0----------------|--5----------------|--3----------------| 
--0----------------|--0----------------|--3----------------|--1----------------| 
--0----------------|--0----------------|-------------------|-------------------| 

-------------------|-------------------|-------------------|-------------------| 
-------------------|-------------------|-------------------|-------------------| 
-------------------|-------------------|--5----------------|--3----------------| 
--0----------------|--0----------------|--5----------------|--3----------------| 
--0----------------|--0----------------|--3----------------|--1----------------| 
--0----------------|--0----------------|-------------------|-------------------| 

-------------------|-------------------|-------------------|-------------------| 
-------------------|-------------------|-------------------|-------------------| 
-------------------|-------------------|--5----------------|--3----------------| 
--0----------------|--0----------------|--5----------------|--3----------------| 
--0----------------|--0----------------|--3----------------|--1----------------| 
--0----------------|--0----------------|-------------------|-------------------| 

(Refrão) 
|---------------------------|-------------------------|-------------------| 
|---------------------------|-------------------------|-------------------| 
|*--------------------------|-------------------------|--5----------------| 
|*--0--3--2--0--3--0--0--8--|--L--7--0----3--5--5--5--|--5----------------| 
|---0--3--2--0--3--0--0--8--|--L--7--0----3--5--5--5--|--3----------------| 
|---0--3--2--0--3--0--0--8--|--L--7--0----3--5--5--5--|-------------------| 

                 (3x) 
--------------------||-------------------|-------------------| 
--------------------||-------------------|-------------------| 
-------------------*||-------------------|-------------------| 
--2----------------*||--5----------------|--L----------------| 
--2-----------------||--5----------------|--L----------------| 
--2-----------------||--5----------------|--L----------------| 

-------------------|-------------------||---------------------------| 
-------------------|-------------------||---------------------------| 
-------------------|-------------------||*--------------------------| 
--7----------------|--L----------------||*--0--3--2--0--3--0--0--8--| 
--7----------------|--L----------------||---0--3--2--0--3--0--0--8--| 
--7----------------|--L----------------||---0--3--2--0--3--0--0--8--| 

                                                               (3x) 
-------------------------|-------------------|--------------------|| 
-------------------------|-------------------|--------------------|| 
-------------------------|--5----------------|-------------------*|| 
--L--7--0----3--5--5--5--|--5----------------|--2----------------*|| 
--L--7--0----3--5--5--5--|--3----------------|--2-----------------|| 
--L--7--0----3--5--5--5--|-------------------|--2-----------------|| 

-------------------|-------------------|-------------------|-------------------| 
-------------------|-------------------|-------------------|-------------------| 
-------------------|-------------------|-------------------|-------------------| 
--5----------------|--L----------------|--7----------------|--L----------------| 
--5----------------|--L----------------|--7----------------|--L----------------| 
--5----------------|--L----------------|--7----------------|--L----------------| 

(outro) 
-------------------------|-------------------------|| 
-------------------------|-------------------------|| 
-------------------------|-------------------------|| 
--0--3--2--0--3--0----0--|--L--3--2--0--3--0-------|| 
--0--3--2--0--3--0----0--|--L--3--2--0--3--0-------|| 
--0--3--2--0--3--0----0--|--L--3--2--0--3--0-------|| 

roll up this ad to continue

share this page

See Also: