E-Chords
Adam Harvey

The Love Bug(Tabs)

Adam Harvey

roll up this ad to continue

GOOD ONYA ADAM..CANT WAITE TO HAVE ANOTHER BEER WITH YA MATE!!..... 
 
CATCH YA AT HUGO'S PLACE.! 
 
 
 
E-------|----------------|----------------|---------------|-----------|| 
B-------|----------------|----------------|---------------|-----------|| 
G-------|----------------|----------------|---------------|---------2-|| 
D--2p-0-|----------------|----------------|---------------|----2-4-2--|| 
A------4|----2-----------|-2-4-2-4b-4b-4b-|(4p-2)----2-0--|-3h4-------|| 
E-------|3/7---3b^r-0---3|4---------------|---------4-----|-----------|| 
 
E-------|----------------|----12b^--------|---------------|-----------|| 
B-------|--------5p4-----|----11b^------12|-12------------|-----------|| 
G--1--2-|-3----4---------|--4/-------11b--|---11ghost bend| release-12|| 
D--1--2-|-3-4h6-x---6-4x-|4h6/------------|---------------|-----------|| 
A-------|----------------|----------------|---------------|-----------|| 
E-------|----------------|----------------|---------------|-----------|| 
 
share this page

See Also: