E-Chords
Ab-soul

These Days(Tabs)

Ab-soul

Lead Guitar Part: 

e|---------------------------------------------------| 
B|---------------------------------------------------| 
G|---------------------------------------------------| 
D|---------------------------------------------------| 
A|---------8h10/12------------8h10/12 10~   10 10 8--| 
E|----8h10---------------8h10------------------------| 

e|------------------------------------| 
B|------------------------------------| 
G|------------------------------------| 
D|-----------------------10-----------| 
A|---------8h10/12----------12 12p10--| 
E|----8h10----------------------------| 

Rhythm Guitar Part: 

e|-6~-----5~-----8~---------------6~-----5---5-5-----8 8 8 8 8 8 8 8 8 8 8 8 8 8 8---| 
B|-6~-----6~-----8~---------------6~-----6---6-6-----8 8 8 8 8 8 8 8 8 8 8 8 8 8 8---| 
G|-7~-----7~-----9~-------5--5----7~-----7---7-7-----9 9 9 9 9 9 9 9 9 9 9 9 9 9 9---| 
D|-8-~----7~-----10~------5--7----8~-----7---7-7-----101010101010101010101010101010--| 
A|-----------------------------------------------------------------------------------| 
E|-----------------------------------------------------------------------------------| 


************************************ 

| /   slide up 
| \   slide down 
| h   hammer-on 
| p   pull-off 
| ~   vibrato 
| +   harmonic 
| x   Mute note 
| b   Bend 
| pb  Pre-bend 
| br  Bend release 
| pbr Pre-bend release 
| brb Bend release bend 

************************************ 

roll up this ad to continue

share this page

See Also: