E-Chords
A Lot Like Birds

Vanitys Fair(Tabs)

A Lot Like Birds

roll up this ad to continue

Key: E
Guitar I 

  Part A (Intro) Finger tapping; R.H. = Right Hand) 
e|---------------------------------------------------------------------------|\ 
B|-12------------------------------------------------------------------------| \ 
G|------9--------12---12-----------------------------------------------------|  Repeat 
D|--------12---9-----------7-12-----10---9---5-------12---9---5-------12-----|  4x 
A|----7------7------7-------------7------------9---5------------9---5--------| / 
E|-----------------------5------5------5---3-----3------3---3-----3------3---|/ 
B ?Hooooooold yoooouuurrrr tongue.? 
e|-----------------------------------------------------------------------------------| 
B|-----------------------------------------------------------------------------------| 
G|-----------------------------------------------------------------------------------| 
D|--------0h5h7-------0h5h7------------0h5h7-------0h5h7----------------0h5h7--------| 
A|--0h5h7-------0h5h7-------7--7-0h5h7-------0h5h7-------0h5h7-7--0h5h7-------0h5h7--| 
E|-----------------------------------------------------------------------------------| 

e|-----------------------------------------------------------------------------------| 
B|-----------------------------------------------------------------------------------| 
G|----------9--9-9---9-9---9-9-------------------------------------------------------| 
D|--0h5h7---8--8-8---8-8---8-8-------0h5h7-------0h5h7------------0h5h7-------0h5h7--| 
A|--------7-7--7-7---7-7---7-7-0h5h7-------0h5h7-------7--7-0h5h7------?0h5h7--------| 
E|-----------------------------------------------------------------------------------| 

e|--------------------------------------| 
B|--------------------------------------| 
G|--------------------------------------| 
D|-----------------0h5h7-------0h5h7----| 
A|--0h5h7-7--0h5h7-------0h5h7-------7--| 
E|--------------------------------------| 

Guitar I 

  Part B (Transition) 
e|-------------------| 
B|-5h7-5-------------| 
G|-------6p5---------| 
D|-------------------| 
A|-------------------| 
E|-------------------| 

Guitar II 

  Part B (Transition Harmony) 
e|-------------------| 
B|-------------------| 
G|-4h5-4-------------| 
D|-------5p4---------| 
A|-------------------| 
E|-------------------| 

Guitar I 

  Part C ?You can pretend?? 
e|---------------------------------------------------------------------------|\ 
B|---------------------------------------------------------------------------| \ 
G|---------------------------------------------------------------------------|  Repeat 
D|-------0h5h7-------0h5h7------------0h5h7-------0h5h7----------------------|  3x 
A|-0h5h7-------0h5h7-------7--7--0h5h7-------0h5h7-------0h5h-7--7-----------| / 
E|---------------------------------------------------------------------------|/ 

e|------------------------------------------------------| 
B|------------------------------------------------------| 
G|------------------------------------------------------| 
D|--------0h5h7-------0h5h7------5h7p5------------------| 
A|--0h5h7-------0h5h7-------7-7--------7-5p3h5----------| 
E|------------------------------------------------------| 

Guitar II 

  Part C (Harmony) 
e|-------------------------------------------------------------------------------|\ 
B|-------------------------------------------------------------------------------| \ 
G|-------------------------------------------------------------------------------|  Repeat  
D|---------0h9h10--------0h9h10---------------0h9h10--------0h9h10---------------|  3x 
A|--0h9h10--------0h9h10--------10-10--0h9h10--------0h9h10--------0h9h10-10-10--| / 
E|-------------------------------------------------------------------------------|/ 


e|------------------------------------------------------| 
B|------------------------------------------------------| 
G|------------------------------------------------------| 
D|---------0h9h10--------0h9h10--------9h10p9-----------| 
A|--0h9h10--------0h9h10--------10-10---------10-9\7h9--| 
E|------------------------------------------------------| 

Guitar I 

  Part D (FUNK IT) 
e|---------------------------------------------------------------------------| 
B|---------------------------------------------------------------------------| 
G|---------------------------------------------------------------------------| 
D|------------------5h7-5----------------------------------------------------| 
A|-5h7--5h7--7\-----------5h7--5h7--7\----6-6-6-6-6-6------------------------| 
E|---------------------------------------------------------------------------| 

e|---------------------------------------------------------------------------| 
B|---------------------------------------------------------------------------| 
G|--------------------------------------4---5---6---7---8--------------------| 
D|-----------------5h7-5-----------------------------------------------------| 
A|-5h7--5h7--7\----------5h7--5h7--7\-2---3---4---5---6----------------------| 
E|---------------------------------------------------------------------------| 

e|---------------------------------------------------------------------------| 
B|---------------------------------------------------------------------------| 
G|---------------------------------------------------------------------------| 
D|------------------5h7-5----------------------------------------------------| 
A|-5h7--5h7--7\-----------5h7--5h7--7\----6-6-6-6-6-6------------------------| 
E|---------------------------------------------------------------------------| 

e|---------------------------------------------------------------------------| 
B|---------------------------------------------------------------------------| 
G|---------------------------------------------------------------------------| 
D|------------------5h7-5-----------5--5-5--6--6-6-6-------------------------| 
A|--5h7--5h7--7\----------5h7--5h7-------------------------------------------| 
E|---------------------------------------------------------------------------| 

  ?already threw it away?? 
e|---------------------------------------------------------------------------|\ 
B|---------------------------------------------------------------------------| \ 
G|---------------xxx5x5x5h7x7-0h5p0---------------xxx5x5x--------------------|  Repeat 
D|-5h7/--5h7--7/--------------------5h7/--5h7--7/--------5x5x6---------------|  2x 
A|---------------------------------------------------------------------------| / 
E|---------------------------------------------------------------------------|/ 

  ?learn to hold your tongue?? 
e|---------------------------------------------------------------------------| 
B|---------------------------------------------------------------------------| 
G|---------------------------------------------------------------------------| 
D|------------------5h7-5----------------------------------------------------| 
A|-5h7--5h7--7\-----------5h7--5h7--7\----6-6-6-6-6-6------------------------| 
E|---------------------------------------------------------------------------| 

e|---------------------------------------------------------------------------| 
B|---------------------------------------------------------------------------| 
G|---------------------------------------------------------------------------| 
D|------------------5h7-5----------------------------------------------------| 
A|--5h7--5h7--7\----------5h7--5h7\------------------------------------------| 
E|---------------------------------------------------------------------------| 

Guitar II 

  Part D initiate wah-wah (V=down strum ^=up strum) 
                       V ^ V ^ V ^ V ^ ^ V ^ V ^ V ^ 
e|---------------------X-X-X-X-X-X-X-X--X-X-X-X-X-X-X-------------------------------| 
B|---------------------X-X-X-X-X-X-X-X--X-X-X-X-X-X-X-------------------------------| 
G|---------------------X-X-X-X-X-X-X-X--X-X-X-X-X-X-X------------------8-8-8-8-8-8--| 
D|---------------------X-X-X-X-X-X-X-X--X-X-X-X-X-X-X-------------------------------| 
A|--7\--5h7--5h7--7\---X-X-X-X-X-X-X-X--X-X-X-X-X-X-X--5h7--5h7--7\----6-6-6-6-6-6--| 
E|---------------------X-X-X-X-X-X-X-X--X-X-X-X-X-X-X-------------------------------| 
   
                   V ^ V ^ V ^ V ^ ^ V ^ V ^ V ^ 
e|-----------------X-X-X-X-X-X-X-X--X-X-X-X-X-X-X---------------------------------| 
B|-----------------X-X-X-X-X-X-X-X--X-X-X-X-X-X-X---------------------------------| 
G|-----------------X-X-X-X-X-X-X-X--X-X-X-X-X-X-X----------------4-4-5-5-6-6-7-7--| 
D|-----------------X-X-X-X-X-X-X-X--X-X-X-X-X-X-X---------------------------------| 
A|--5h7--5h7--7\---X-X-X-X-X-X-X-X--X-X-X-X-X-X-X--5h7--5h7--7\--2-2-3-3-4-4-5-5--| 
E|-----------------X-X-X-X-X-X-X-X--X-X-X-X-X-X-X---------------------------------| 

e|-----------| 
B|-----------| 
G|--8-8-8-8--| 
D|-----------| 
A|--6-6-6-6--| 
E|-----------| 
                   V ^ V ^ V ^ V ^ ^ V ^ V ^ V ^ 
e|-----------------X-X-X-X-X-X-X-X--X-X-X-X-X-X-X-------------------------------| 
B|-----------------X-X-X-X-X-X-X-X--X-X-X-X-X-X-X-------------------------------| 
G|-----------------X-X-X-X-X-X-X-X--X-X-X-X-X-X-X------------------8-8-8-8-8-8--| 
D|-----------------X-X-X-X-X-X-X-X--X-X-X-X-X-X-X-------------------------------| 
A|--5h7--5h7--7\---X-X-X-X-X-X-X-X--X-X-X-X-X-X-X--5h7--5h7--7\----6-6-6-6-6-6--| 
E|-----------------X-X-X-X-X-X-X-X--X-X-X-X-X-X-X-------------------------------| 

                   V ^ V ^ V ^ V ^ ^ V ^ V ^ V ^ 
e|-----------------X-X-X-X-X-X-X-X--X-X-X-X-X-X-X----------------| 
B|-----------------X-X-X-X-X-X-X-X--X-X-X-X-X-X-X----------------| 
G|-----------------X-X-X-X-X-X-X-X--X-X-X-X-X-X-X----------------| 
D|-----------------X-X-X-X-X-X-X-X--X-X-X-X-X-X-X----------------| 
A|--5h7--5h7--7\---X-X-X-X-X-X-X-X--X-X-X-X-X-X-X--5h7--5h7--7\--| 
E|-----------------X-X-X-X-X-X-X-X--X-X-X-X-X-X-X----------------| 

  ?already threw it away?? 
e|-----------------------------------------------------------------------------------| 
B|-----------------------------------------------------------------------------------| 
G|---------------------------------5h7-7-7-7-7p5-------------------------------------| 
D|--5h7-7-7--5h7-7-7-7-7--5h7-7-7----------------7--5h7-7-7--5h7-7-7-7-7--5h7-7-7----| 
A|-----------------------------------------------------------------------------------| 
E|-----------------------------------------------------------------------------------| 

e|-----------------------------------------------------------------------------------| 
B|-----------------------------------------------------------------------------------| 
G|--7s9-7-5h7p5----------------------------------5h7-7-7-7-7p5-----------------------| 
D|--------------7--5h7-7-7--5h7-7-7-7-7--5h7-7-7---------------7--5h7-7-7--5h7-7-7---| 
A|-----------------------------------------------------------------------------------| 
E|-----------------------------------------------------------------------------------| 

e|-----------------------------------| 
B|--------5---5---5---5---5----------| 
G|--------7b9-7b9-7b9-7b9-7b9b7p5----| 
D|--7-7---------------------------7--| 
A|-----------------------------------| 
E|-----------------------------------| 

  ?learn to hold your tongue?? 
e|-----------------------------------------------------------------------------------| 
B|-----------------------------------------------------------------------------------| 
G|----------------------------------8-8-8-8-8-8--------------------------------------| 
D|-----------------------------------------------------------------------------------| 
A|--7h9--7h9--9\---9h10--9h10--10\--6-6-6-6-6-6--7h9--7h9--9\--9h10--9h10--10\-------| 
E|-----------------------------------------------------------------------------------| 

Guitar I 

  Part E 'You can go! But I might stay...' 
e|---------------------------------------------------------------------------| 
B|---------------------------------------------------------------------------| 
G|-9-9-9\--7/9-9-9--8-8-8-8-8-8-9-9-9\--7/9-9-9--8-8-8-8-8-8-----------------| 
D|---------------------------------------------------------------------------| 
A|-7-7-7\--5/7-7-7--6-6-6-6-6-6-7-7-7\--5/7-7-7--6-6-6-6-6-6-----------------| 
E|---------------------------------------------------------------------------| 

e|---------------------------------------------------------------------------| 
B|---------------------------------------------------------------------------| 
G|-9-9---9----------8-8-8-8-8-8-9-9-9---7/9-9-9------------------------------| 
D|---------------------------------------------------------------------------| 
A|-7-7-0-7\---------6-6-6-6-6-6-7-7-7\--5/7-7-7------------------------------| 
E|---------------------------------------------------------------------------| 

Guitar II 

  Part E (Harmony) 
e|--------------------------------------------------------------------------------------| 
B|--------------------------------------------------------------------------------------| 
G|--12-12-12\--11/12-12-12--11-11-11-11-11-11-12-12-12\--11/12-12-12--11-11-11-11-11-11-| 
D|--------------------------------------------------------------------------------------| 
A|--10-10-10\---9/10-10-10---9--9--9--9--9--9-10-10-10\---9/10-10-10---9--9--9--9--9--9-| 
E|--------------------------------------------------------------------------------------| 


e|------------------------------------------------------------| 
B|------------------------------------------------------------| 
G|--12-12-11-12\---11-11-11-11-11-11--12-12-12\--11/12-12-12--| 
D|------------------------------------------------------------| 
A|--10-10--9-10\----9--9--9--9--9--9--10-10-10\---9/10-10-10--| 
E|------------------------------------------------------------| 

Guitar I 

  Part F 'And if you're asking me...' 
e|--------------------------------------------------------------------|\ 
B|--------------------------------------------------------------------| \ 
G|--9--9--9--9-9-9-XX-12X12X12--12-XX---------------------------------| Repeat 
D|--5--5--5--5-5-5-XX--9X-9X-9---9-XX-12--12--12--12-XXX-9X9X9--9-XX--| x4 
A|--7--7--7--7-7-7-XX-10X10X10--10-XX--9---9---9---9-XXX-5X5X5--5-XX--| / 
E|------------------------------------10--10--10--10-XXX-7X7X7--7-XX--|/ 

Guitar II 

  Part F (Lead) 
e|-----------------12--------------------------------------------------------|\ 
B|-17--------12h15----15----12----------15----------15-16--------------------| \ 
G|----16-12--------------14-------12-------12/11-----------------------------|  Repeat  
D|-----------------------------------12----------12--------------------------|  2x 
A|---------------------------------------------------------------------------| / 
E|---------------------------------------------------------------------------|/ 


e|-----15-14---------------15-14-17----15-14---------------------------------| 
B|-/17-------15--------/17---------------------------------------------------| 
G|---------------------------------------------------------------------------| 
D|---------------------------------------------------------------------------| 
A|---------------------------------------------------------------------------| 
E|---------------------------------------------------------------------------| 

Guitar I 

  Part G (Transition) 
e|---------------------------------------------------------------------------------| 
B|-12p0-12p0-12p0-12p0-12p0-12p0-12p0-12p0-12p0-12p0-12p0-12p0-12p0-12p0-12p0-12p0-| 
G|---------------------------------------------------------------------------------| 
D|---------------------------------------------------------------------------------| 
A|---------------------------------------------------------------------------------| 
E|---------------------------------------------------------------------------------| 

Guitar II 

  Part G (Harmony)  
e|--10p0-10p0-10p0-10p0-10p0-10p0-10p0-10p0-10p0-10p0-10p0-10p0-10p0-10p0-10p0-10p0--| 
B|-----------------------------------------------------------------------------------| 
G|-----------------------------------------------------------------------------------| 
D|-----------------------------------------------------------------------------------| 
A|-----------------------------------------------------------------------------------| 
E|-----------------------------------------------------------------------------------| 

Guitar I 
   
  Part H 'Aside from all the points...' 
e|--7p0-7p0-7p0-7p0-7p0-7p0-7p0-7p0-7p0-----------------------------------| 
B|--------------------------------------10p0-10p0-10p0-10p0-10p0-7p0-7p0--|  
G|------------------------------------------------------------------------|  
D|------------------------------------------------------------------------| 
A|------------------------------------------------------------------------| 
E|------------------------------------------------------------------------| 

  Cont'd 
e|--7p0-7p0-7p0-7p0-7p0-7p0-7p0-7p0-7--------------------------------|\ 
B|--------------------------------------8---7h8-------8---7h9--------| \ 
G|------------------------------------9---9-----9-7-9---9-----9-7-9--|  Repeat  
D|-------------------------------------------------------------------|  3x 
A|-------------------------------------------------------------------| / 
E|-------------------------------------------------------------------|/ 


e|--7p0-7p0-7p0-7p0-10p0-10p0-8p0-8p0-12p0-12p0-12p0-12p0-8p0-8p0-10p0-10p0--| 
B|---------------------------------------------------------------------------|  
G|---------------------------------------------------------------------------|   
D|---------------------------------------------------------------------------| 
A|---------------------------------------------------------------------------| 
E|---------------------------------------------------------------------------| 


e|--7p0-7p0-7p0-7p0-7p0-7p0-7p0-7p0-----------------------------7h8--| 
B|----------------------------------7h8h7-------7h8h7-------7h8------| 
G|----------------------------------------9-7h9-------9-7h9----------| 
D|-------------------------------------------------------------------| 
A|-------------------------------------------------------------------| 
E|-------------------------------------------------------------------| 

e|--7p0-7p0-7p0-7p0-10p0-10p0-8p0-8p0-12p0-12p0-12p0-12p0-8p0-8p0-10p0-10p0--| 
B|---------------------------------------------------------------------------| 
G|---------------------------------------------------------------------------| 
D|---------------------------------------------------------------------------| 
A|---------------------------------------------------------------------------| 
E|---------------------------------------------------------------------------| 

e|--7p0-7p0-7p0-7p0-7p0-7p0-7p0-7p0-----------------------------7h8--| 
B|----------------------------------7h8h7-------7h8h7-------7h8------| 
G|----------------------------------------9-7h9-------9-7h9----------| 
D|-------------------------------------------------------------------| 
A|-------------------------------------------------------------------| 
E|-------------------------------------------------------------------| 

Guitar II 

  Part H (Harmony) 
e|---------------------------------------------------------------------------------| 
B|-15p0-15p0-15p0-15p0-15p0-15p0-15p0-15p0-12p0-12p0-12p0-12p0-12p0-12p0-10p0-10p0-| 
G|---------------------------------------------------------------------------------| 
D|---------------------------------------------------------------------------------| 
A|---------------------------------------------------------------------------------| 
E|---------------------------------------------------------------------------------| 

  Cont'd 
e|-------------------------------------------------------------14p0-14p0-14p0-14p0-|\ 
B|-10p0-15p0-15p0-15p0-15p0-15p0-15p0-15p0-15p0-12p0-12p0-12p0---------------------| \ 
G|---------------------------------------------------------------------------------|  Repeat 
D|---------------------------------------------------------------------------------|  3x 
A|---------------------------------------------------------------------------------| / 
E|---------------------------------------------------------------------------------|/ 

  E-Bow and slide 
e|---------------------------------------------------------------------------------| 
B|-//12\\\\\\\\10\\\\\\9//12\\\\\\\\8\\\\7\\3/12\\\\\\\\10////15////20\\\\\\\\19---| 
G|---------------------------------------------------------------------------------| 
D|---------------------------------------------------------------------------------| 
A|---------------------------------------------------------------------------------| 
E|---------------------------------------------------------------------------------| 

Guitar I 

  Part I ?it?s not a flattering color?? 
e|--7~~-----------------------------------------------------------------| 
B|-------8-7h8p7------------------------------12------12----------------| 
G|---------------9-7h9~~---7-9-9/12---12-14---14b16~~-14b16b14-12-------| 
D|----------------------------------------------------------------14~~--| 
A|----------------------------------------------------------------------| 
E|----------------------------------------------------------------------| 

e|----------------------------------------------------------------------------| 
B|----------------------------------------------------------------------------| 
G|--------12-------14-12---------------------------12------------------12-----| 
D|--12-14-12-14-12-14-12--14--12--14---------12h14----14~~-------12h14----14~~| 
A|--12-14----14-12--------14--12--14---12h14---------------12h14--------------| 
E|----------------------------------------------------------------------------| 

e|----------------------------------| 
B|----------------------------------| 
G|--------------12-14b~~---14b16~~--| 
D|--------12h14---------------------| 
A|--12h14---------------------------| 
E|----------------------------------| 

Guitar II 

 Part I 
e|---------------------------------------------------------------------------| 
B|-15------------------------------------------------------------------------| 
G|-------11b12b11b12b11b12----------12\11------------------------------------| 
D|-------------------------12-12/14-----------12-----------------------------| 
A|------------------------------------------------14-------------------------| 
E|---------------------------------------------------------------------------| 

e|----------------------------15----15h17--15--------------------------------| 
B|------------------15--12----15----15-----15--------------------------------| 
G|-12-----14/16\14-----------------------------------------------------------| 
D|---------------------------------------------------------------------------| 
A|---------------------------------------------------------------------------| 
E|---------------------------------------------------------------------------| 

Guitar I 

  Part J Finger tapping; R.H. = Right Hand) 
e|---------------------------------------------------------------------------|\ 
B|-12------------------12------------12--------------------------------------| \ 
G|------9------9-12------------9-12----------9-12----------------------------|  Repeat 
D|--------12--------------12------------12-----------------------------------|  4x 
A|----7------7---------------7-------------7---------------------------------| / 
E|---------------------------------------------------------------------------|/ 

    
share this page

See Also: