E-Chords
A Fine Frenzy

Winds Of Wander(Tabs)

A Fine Frenzy

roll up this ad to continue

e|---3---------3--------------3----------3--------------------------------------| 
B|------3-----------------------3---------3-------------------------------------| 
G|------------------------------------------------------------------------------| 
D|-----------3------------0-----------3-----------------------------------------| 
A|3------------------------3----------------------------------------------------| 
E|------------------------------------------------------------------------------| 

e|-----3--------5--------------3--------3---------------------------------------| 
B|-------3-------3---------------3-------3--------------------------------------| 
G|-----------------5--------0---------------5-----------------------------------| 
D|0----------3-------------------------3----------------------------------------| 
A|--3------------------------3--------------------------------------------------| 
E|------------------------------------------------------------------------------| 
Hanging heavy up above 
Drown in the drowsy afternoon 

e|--3-----3----| 
B|----3----3---| 
G|----------5--| 
D|-------3-----|x2 
A|3------------| 
E|-------------| 
In the green grass where yellow flowers bloom 

e|---3-3-------------------------------------------------------------------------| 
B|---3-3---------3-3--------3-3---------3-3--------------------------------------| 
G|---------------3-3--------3-3---------3-3--------------------------------------| 
D|------------0-----------1-----------0------------------------------------------| 
A|-----------1-------------------------------------------------------------------| 
E|3------------------------------------------------------------------------------| 

e|-----------------------------------------------------------------------------| 
B|-----------------------------------------------------------------------------| 
G|--3-3----------3-3--------3-3---------3-3------------------------------------| 
D|--5-5----------5-5--------5-5---------5-5------------------------------------| 
A|-----------1-5----------6-----------5----------------------------------------| 
E|3----------------------------------------------------------------------------| 
The heart beats slow 
And eyes will close?  

e|-----3-6-3--------------------------------------------------------| 
B|--3--------3------------------------------------------------------| 
G|--3-3----3-3-----2-2-----2-2---3-3---3-3----3-3---3-3-------------| 
D|--5-5----5-5-----4-4-----4-4---3-3---3-3----3-3---3-3-------------| 
A|-5-----5--------5-------5-----------5------------5----------------| 
E|-----------------------------6------------6-----------------------| 
they?ll close 

e|---3-3---------5--------3-3----------5-------------------------------------| 
B|------------------------1-1------------------------------------------------| 
G|---------------------------------------------------------------------------| 
D|---------------------------------------------------------------------------| 
A|-3--------------------3----------------------------------------------------| 
E|------------1----------------------1---------------------------------------| 

e|---3-3---------5--1-----3-3----------5---1---------------------------------| 
B|------------------------1-1------------------------------------------------| 
G|---------------------------------------------------------------------------| 
D|---------------------------------------------------------------------------| 
A|-3--------------------3----------------------------------------------------| 
E|------------1----------------------1---------------------------------------| 

e|---3-3---------5--------3-3----------5-------------------------------------| 
B|---3-3---------3--------1-1------------------------------------------------| 
G|---------------------------------------------------------------------------| 
D|------------3----------------------3---------------------------------------| 
A|-3--------------------3----------------------------------------------------| 
E|------------1----------------------1---------------------------------------| 
Vise hands, loosen up the reins 
That tight grasp won?t save you any pain 
Rock back and forwards with your breath 
From this stone house, the home you?ve never left 

e|---------------------------------------------------------------------------| 
B|---------------------------------------------------------------------------| 
G|--3-3----------3-3--------3-3---------3-3----------------------------------| 
D|--5-5----------5-5--------5-5---------5-5----------------------------------| 
A|-----------1-5----------6-----------5--------------------------------------| 
E|3--------------------------------------------------------------------------| 
The heartbeat slows 
And eyes will close 

e|-----3-6-3-----------------------------------------------------------------| 
B|--3--------3---------------------------------------------------------------| 
G|--3-3----3-3-----2-2-----2-2---3-3---3-3----3-3---3-3----------------------| 
D|--5-5----5-5-----4-4-----4-4---3-3---3-3----3-3---3-3----------------------| 
A|-5-----5--------5-------5-----------5------------5-------------------------| 
E|------------------------------6------------6-------------------------------| 
Learn to float 
                      
Don?t you worry so              
Let the winds of wander blow   
Up and away we go 

Up and away we go 
Where the winds of wander blow 
Up and away we go 
Where the winds of wander blow 
share this page

See Also: