E-Chords
A Fine Frenzy

The Sighting(Tabs)

A Fine Frenzy

roll up this ad to continue

Key: F
Verse 

  F 
e|----1-----0-----|--0-------0-----|--0-------0-----|--0-------0-----| 
B|------1-----1-0-|----1-0-----1-0-|----1-0-----1-0-|----1-0-----1-0-| 
G|----------------|----------------|----------------|----------------| 
D|--3-----3-------|3-------3-------|3-------3-------|3-------3-------| 
A|----------------|----------------|----------------|--------------0-| 
E|1---------------|----------------|1---------------|----------------| 

  Dm                                F 
e|----1-------1---|----1-------1---|----1-------1---|----1-------1---| 
B|------1-------1-|------1-------1-|------1-------1-|------1-------1-| 
G|--2-------2-----|--2-------2-----|--2-------2-----|0-2-------2-----| 
D|0-------0-------|0-------0-------|3-------3-------|3-------3-------| 
A|--------------0-|----------------|----------------|----------------| 
E|----------------|----------------|1-------------1-|----------------| 

Chorus 

(there's some pretty random freestyle picking here) 

  F 
e|--------------3-|----------------|----------------|----------------| 
B|----1-------1---|----1-------1---|----1-------1---|----1-------1---| 
G|----2-------2---|----2-------2---|----2-------2---|----2--------2--| 
D|----3-------3---|----3-------3---|----3-------3---|----3---------3-| 
A|3-------3-------|3-------3-------|3-------3-------|3-------3-------| 
E|----------------|----------------|---------------------------------| 

e|----------------|----------------|----------------|----------------| 
B|----1-------1---|----1-------1---|----1-------1---|----1-------1---| 
G|----2-------2---|----2-------2---|----2-------2---|----2--------2--| 
D|----3-------3---|----3-------3---|----3-------3---|----3---------3-| 
A|3-------3-------|3-------3-------|3-------3-------|3-------3-------| 
E|----------------|----------------|---------------------------------| 

Oh, hi 
Love                                Dm 
e|----------------|----------------|----1-------1---|----1-------1---| 
B|----1-------1---|----1-------1---|----3-------3---|----2-------2---| 
G|----2-------2---|----2-------2---|------2-------2-|----------------| 
D|----3-------3---|----3-------3---|0-------0-------|0-------0-------| 
A|3-------3-------|3-------3-------|----------------|----------------| 
E|----------------|----------------|---------------------------------| 

So far from 
From me 


Outro 

e|3---------------|----------------|1--------------|---------------| 
B|3---------------|----------------|1--------------|---------------| 
G|3---------------|----------------|2--------------|---------------| 
D|5---------------|----------------|3--------------|---------------| 
A|5---------------|----------------|3--------------|---------------| 
E|3---------------|----------------|1------------------------------|  
share this page

See Also: