E-Chords
4/1 - Quatro Por Um

Não Temerei(Tabs)

4/1 - Quatro Por Um

roll up this ad to continue

Começo da Musica... 
F# C# B    E--------------------------------------- 
           A-----------------6--4--6--------------- 
           D--------8--6--4------------------------ 
           G--8--6--------------------------------- 
           B--------------------------------------- 
           e--------------------------------------- 

Segundo solo... 
           E---------------------------------------- 
           A---------------------------------------- 
           D---------------------------------------- 
           G---------------------------------------8 
           B--6--7--8--9---6--7--8--9--9--7--8--7--- 
           e---------------------------------------- 

  
           E----------------------------------------- 
           A-----------------------------------------            
           D-----7--5--7-----7--5-------------------- 
           G--5-----------6---------9--11--12-------- 
           B------------------------------------12--- 
           e----------------------------------------- 
share this page

See Also: