E-Chords
4/1 - Quatro Por Um

Adorar a Deus (solo)(Tabs)

4/1 - Quatro Por Um

roll up this ad to continue

Key: Am
BASE:   Am   Dm  G   E4  E  A 


e|-------------------------------------------------|  
B|-------------------------------------------------|  
G|------------------7-9-7/9~--7-5-9b10-9-7---------|  
D|-----------7-9-10--------------------------------|  
A|---------7---------------------------------------|  
E|---8-5-8-----------------------------------------|  

e|-------------------------------10-12-13-12-10/12-|  
B|------10-12-13-12b13-12--12-13-------------------|  
G|-------------------------------------------------|  
D|---12--------------------------------------------|  
A|-------------------------------------------------|  
E|-------------------------------------------------|  

e|---14-------14-16---14-16-17~~-------------------|  
B|------15-----------------------------------------|  
G|---------16------16------------------------------|  
D|-------------------------------------------------|  
A|-------------------------------------------------|  
E|-------------------------------------------------|  




Cifrada por: Guilherme 

share this page

See Also: