E-Chords
40meterp

Kiritorisen(Tabs)

40meterp

roll up this ad to continue


Legend 
L - tied note 
x - dead note 
h - hammer on/pull off 
b - bend 
s - slide 
~ - vibrato 
g - ghost note 
> - accentuated note 
t - trill 
M - palm mute 
. - staccato 
P - popping (bass) 
S - slapping (bass) 
+ - tapping 
W - wide vibrato 
< - fade in 
w - whammy bar 
= - tremolo picking 
v - brush up 
^ - brush down 
V - pick stroke up 
n - pick stroke down 

                                                                   
E |----|--5.----5.----x--5.-x--4L---|--4--4--x--4L-4--4--4--4----| 
B |----|--7.----7.----x--7.-x--5L---|--5--5--x--6L-6--6--6--6----| 
G |----|--6.----6.----x--6.-x--4L---|--4--4--x--4L-4--4--4--4----| 
D |----|--7.----7.----x--7.-x--6L---|--6--6--x--6L-6--6--6--6----| 
A |----|--5.----5.----x--5.-x--4L---|--4--4--x--4L-4--4--4--4----| 
E |----|----------------------------|----------------------------| 

                                                           
--2.----2.----x--2--x--0L---|--0--0--0--0L-0--0--0--0----| 
--2.----2.----x--2--x--0L---|--0--0--0--0h-2--2--2--2----| 
--2.----2.----x--2--x--0L---|--0--0--0--0L-0--0--0--0----| 
--2.----2.----x--2--x--0L---|--0--0--0--2L-2--2--2--2----| 
--4.----4.----x--4--x--2L---|--2--2--2--0L-0--0--0--0----| 
--2.----2.----x--2--x--0L---|--0--0--0-------------------| 

                                                           
--5.----5.----x--5.-x--4L---|--4--4--x--4L-4--4--4--4----| 
--7.----7.----x--7.-x--5L---|--5--5--x--6L-6--6--6--6----| 
--6.----6.----x--6.-x--4L---|--4--4--x--4L-4--4--4--4----| 
--7.----7.----x--7.-x--6L---|--6--6--x--6L-6--6--6--6----| 
--5.----5.----x--5.-x--4L---|--4--4--x--4L-4--4--4--4----| 
----------------------------|----------------------------| 

                                                            
--2.----2.----x--2--x--0L---|--0--0--0--0L-0--0--0--0----|| 
--2.----2.----x--2--x--0L---|--0--0--0--0h-2--2--2--2----|| 
--2.----2.----x--2--x--0L---|--0--0--0--0L-0--0--0--0----|| 
--2.----2.----x--2--x--0L---|--0--0--0--2L-2--2--2--2----|| 
--4.----4.----x--4--x--2L---|--2--2--2--0L-0--0--0--0----|| 
--2.----2.----x--2--x--0L---|--0--0--0-------------------|| 

                                                          
-5.----5.----x--5.-x--4L---|--4--4--x--4L-4--4--4--4----| 
-7.----7.----x--7.-x--5L---|--5--5--x--6L-6--6--6--6----| 
o6.----6.----x--6.-x--4L---|--4--4--x--4L-4--4--4--4----| 
o7.----7.----x--7.-x--6L---|--6--6--x--6L-6--6--6--6----| 
-5.----5.----x--5.-x--4L---|--4--4--x--4L-4--4--4--4----| 
---------------------------|----------------------------| 

                                                           
--2.----2.----x--2--x--0L---|--0--0--0--0L-0--0--0--0----| 
--2.----2.----x--2--x--0L---|--0--0--0--0h-2--2--2--2----| 
--2.----2.----x--2--x--0L---|--0--0--0--0L-0--0--0--0----| 
--2.----2.----x--2--x--0L---|--0--0--0--2L-2--2--2--2----| 
--4.----4.----x--4--x--2L---|--2--2--2--0L-0--0--0--0----| 
--2.----2.----x--2--x--0L---|--0--0--0-------------------| 

                                                           
--5.----5.----x--5.-x--4L---|--4--4--x--4L-4--4--x--x----| 
--7.----7.----x--7.-x--5L---|--5--5--x--5L-5--5--x--x----| 
--6.----6.----x--6.-x--4L---|--4--4--x--4L-4--4--x--x----| 
--7.----7.----x--7.-x--6L---|--6--6--x--6L-6--6--x--x----| 
--5.----5.----x--5.-x--4L---|--4--4--x--4L-4--4--x--x----| 
----------------------------|----------------------------| 

                                                           
--2-----x--2L-2--2--2--0L---|--0--0--0--0L-0--0--0--0----| 
--3-----x--3L-3--3--3--0L---|--0--0--0--0L-0--0--0--0----| 
--2-----x--2L-2--2--2--1L---|--1--1--1--1L-1--1--1--1----| 
--4-----x--4L-4--4--4--2L---|--2--2--2--2L-2--2--2--2----| 
--2-----x--2L-2--2--2--2L---|--2--2--2--2L-2--2--2--2----| 
-----------------------0L---|--0--0--0--0L-0--0--0--0----| 

                                                           
--5.----5.----x--5.-x--4L---|--4--4--x--2L-2--2--2--2----| 
--7.----7.----x--7.-x--5L---|--5--5--x--2L-2--2--2--2----| 
--6.----6.----x--6.-x--4L---|--4--4--x--2L-2--2--2--2----| 
--7.----7.----x--7.-x--6L---|--6--6--x--2L-2--2--2--2----| 
--5.----5.----x--5.-x--4L---|--4--4--x--4L-4--4--4--4----| 
----------------------------|-----------2L-2--2--2--2----| 

                                                           
--2-----x--4-----4-----2----|--2--2--2--2--0-----0-------| 
--3-----x--5-----6-----2----|--2--2--2--2--0-----2-------| 
--2-----x--4-----4-----2----|--2--2--2--2--1-----0-------| 
--4-----x--6-----6-----2----|--2--2--2--2--2-----2-------| 
--2-----x--4-----4-----4----|--4--4--4--4--2-----0-------| 
-----------------------2----|--2--2--2--2--0-------------| 

                                                           
--5.----5.----x--5.-x--4L---|--4--4--x--2L-2--2--2--2----| 
--7.----7.----x--7.-x--5L---|--5--5--x--2L-2--2--2--2----| 
--6.----6.----x--6.-x--4L---|--4--4--x--2L-2--2--2--2----| 
--7.----7.----x--7.-x--6L---|--6--6--x--2L-2--2--2--2----| 
--5.----5.----x--5.-x--4L---|--4--4--x--4L-4--4--4--4----| 
----------------------------|-----------2L-2--2--2--2----| 

                                                           
--2-----x--4-----4-----2----|--2--2--2--2--0-----0-------| 
--3-----x--5-----6-----2----|--2--2--2--2--0-----2-------| 
--2-----x--4-----4-----2----|--2--2--2--2--0-----0-------| 
--4-----x--6-----6-----2----|--2--2--2--2--2-----2-------| 
--2-----x--4-----4-----4----|--4--4--4--4--2-----0-------| 
-----------------------2----|--2--2--2--2--0-------------| 

                                                           
--5.----5.----x--5.-x--4L---|--4--4--x--2L-2--2--2--2----| 
--7.----7.----x--7.-x--5L---|--5--5--x--2L-2--2--2--2----| 
--6.----6.----x--6.-x--4L---|--4--4--x--2L-2--2--2--2----| 
--7.----7.----x--7.-x--6L---|--6--6--x--2L-2--2--2--2----| 
--5.----5.----x--5.-x--4L---|--4--4--x--4L-4--4--4--4----| 
----------------------------|-----------2L-2--2--2--2----| 

                                                           
--2-----x--4-----4-----2----|--2--2--2--2--0-----0-------| 
--3-----x--5-----6-----2----|--2--2--2--2--0-----2-------| 
--2-----x--4-----4-----2----|--2--2--2--2--1-----0-------| 
--4-----x--6-----6-----2----|--2--2--2--2--2-----2-------| 
--2-----x--4-----4-----4----|--4--4--4--4--2-----0-------| 
-----------------------2----|--2--2--2--2--0-------------| 

                                                           
--5.----5.----x--5.-x--4L---|--4--4--x--2L-2--2--2--2----| 
--7.----7.----x--7.-x--5L---|--5--5--x--2L-2--2--2--2----| 
--6.----6.----x--6.-x--4L---|--4--4--x--2L-2--2--2--2----| 
--7.----7.----x--7.-x--6L---|--6--6--x--2L-2--2--2--2----| 
--5.----5.----x--5.-x--4L---|--4--4--x--4L-4--4--4--4----| 
----------------------------|-----------2L-2--2--2--2----| 

                                                           
--2-----x--4-----4-----2----|--2--2--2--2--0-----0-------| 
--3-----x--5-----6-----2----|--2--2--2--2--0-----2-------| 
--2-----x--4-----4-----2----|--2--2--2--2--0-----0-------| 
--4-----x--6-----6-----2----|--2--2--2--2--2-----2-------| 
--2-----x--4-----4-----4----|--4--4--4--4--2-----0-------| 
-----------------------2----|--2--2--2--2--0-------------| 

                                                           
--0-----0--0--0-----0--0L---|--0--0--0--0--0-----0--0----| 
--3-----3--3--3-----3--3L---|--3--3--3--3--3-----3--3----| 
--2-----2--2--2-----2--2L---|--2--2--2--2--2-----2--2----| 
--0-----0--0--0-----0--0L---|--0--0--0--0--0-----0--0----| 
----------------------------|----------------------------| 
----------------------------|----------------------------| 

                                                           
-----------------------2L---|--2--2--2--2--2-----2--2----| 
--2-----2--2--2-----2--2L---|--2--2--2--2--2-----2--2----| 
--2-----2--2--2-----2--2L---|--2--2--2--2--2-----2--2----| 
--2-----2--2--2-----2--2L---|--2--2--2--2--2-----2--2----| 
--4-----4--4--4-----4--4L---|--4--4--4--4--4-----4--4----| 
-----------------------2L---|--2--2--2--2--2-----2--2----| 

                                                           
--2.----2.----x.-2.-x.-4L---|--4--4--4--x--4--4--x--5L---| 
--3.----3.----x.-3.-x.-5L---|--5--5--5--x--5--5--x--5L---| 
--2.----2.----x.-2.-x.-4L---|--4--4--4--x--4--4--x--7L---| 
--4.----4.----x.-4.-x.-6L---|--6--6--6--x--6--6--x--7L---| 
--2.----2.----x.-2.-x.-4L---|--4--4--4--x--4--4--x--5L---| 
----------------------------|----------------------------| 

                                                           
--5--x--5--5L-5--5--x--7----|--7--7--7--7-----4----------| 
--5--x--5--5L-5--5--x--7----|--7--7--7--7-----6----------| 
--7--x--7--7L-7--7--x--7----|--7--7--7--7-----4----------| 
--7--x--7--7L-7--7--x--7----|--7--7--7--7-----6----------| 
--5--x--5--5L-5--5--x--7----|--7--7--7--7-----4----------| 
----------------------------|----------------------------| 

                                                           
--5.----5.----x.-5.-x.-4L---|--4--4--x--4L-4--4--4--4----| 
--7.----7.----x.-7.-x.-6L---|--6--6--x--6L-6--6--6--6----| 
--6.----6.----x.-6.-x.-4L---|--4--4--x--4L-4--4--4--4----| 
--7.----7.----x.-7.-x.-6L---|--6--6--x--6L-6--6--6--6----| 
--5.----5.----x.-5.-x.-4L---|--4--4--x--4L-4--4--4--4----| 
----------------------------|----------------------------| 

                                                           
--2.----2.----x.-2.-x.-0L---|--0--0--0--0L-0--0--0--0----| 
--2.----2.----x.-2.-x.-0L---|--0--0--0--0h-2--2--2--2----| 
--2.----2.----x.-2.-x.-0L---|--0--0--0--0L-0--0--0--0----| 
--2.----2.----x.-2.-x.-0L---|--0--0--0--2L-2--2--2--2----| 
--4.----4.----x.-4.-x.-2L---|--2--2--2--0L-0--0--0--0----| 
--2.----2.----x.-2.-x.-0L---|--0--0--0-------------------| 

                                                           
--2.----2.----x.-2.-x.-4L---|--4--4--x--4L-4--4--4--4----| 
--3.----3.----x.-3.-x.-6L---|--6--6--x--6L-6--6--6--6----| 
--2.----2.----x.-2.-x.-4L---|--4--4--x--4L-4--4--4--4----| 
--4.----4.----x.-4.-x.-6L---|--6--6--x--6L-6--6--6--6----| 
--2.----2.----x.-2.-x.-4L---|--4--4--x--4L-4--4--4--4----| 
----------------------------|----------------------------| 

                                                           
--2.----2.----x.-2.-x.-0L---|--0--0--0--0L-0--0--0--0----| 
--2.----2.----x.-2.-x.-0L---|--0--0--0--0h-2--2--2--2----| 
--2.----2.----x.-2.-x.-0L---|--0--0--0--0L-0--0--0--0----| 
--2.----2.----x.-2.-x.-0L---|--0--0--0--2L-2--2--2--2----| 
--4.----4.----x.-4.-x.-2L---|--2--2--2--0L-0--0--0--0----| 
--2.----2.----x.-2.-x.-0L---|--0--0--0-------------------| 

                                                           
--2-----2-----x--2--x--4L---|--4--4--x--4L-4--4--4--4----| 
--3-----3-----x--3--x--6L---|--6--6--x--6L-6--6--6--6----| 
--2-----2-----x--2--x--4L---|--4--4--x--4L-4--4--4--4----| 
--4-----4-----x--4--x--6L---|--6--6--x--6L-6--6--6--6----| 
--2-----2-----x--2--x--4L---|--4--4--x--4L-4--4--4--4----| 
----------------------------|----------------------------| 

                                                           
--2.----2.----x.-2.-x.-0L---|--0--0--0--0L-0--0--0--0----| 
--2.----2.----x.-2.-x.-0L---|--0--0--0--0h-2--2--2--2----| 
--2.----2.----x.-2.-x.-0L---|--0--0--0--0L-0--0--0--0----| 
--2.----2.----x.-2.-x.-0L---|--0--0--0--2L-2--2--2--2----| 
--4.----4.----x.-4.-x.-2L---|--2--2--2--0L-0--0--0--0----| 
--2.----2.----x.-2.-x.-0L---|--0--0--0-------------------| 

                                                           
--2.----2.----x.-2.-x.-4L---|--4--4--x--4L-4--4--4--4----| 
--3.----3.----x.-3.-x.-6L---|--6--6--x--6L-6--6--6--6----| 
--2.----2.----x.-2.-x.-4L---|--4--4--x--4L-4--4--4--4----| 
--4.----4.----x.-4.-x.-6L---|--6--6--x--6L-6--6--6--6----| 
--2.----2.----x.-2.-x.-4L---|--4--4--x--4L-4--4--4--4----| 
----------------------------|----------------------------| 

                                                           
--5-----5-----5--5--5--0L---|--0--0--0--0L-0--0--0--0L--|| 
--5-----5-----5--5--5--0L---|--0--0--0--0L-0--0--0--0L--|| 
--7-----7-----7--7--7--1L---|--1--1--1--1L-1--1--1--1L-o|| 
--7-----7-----7--7--7--2L---|--2--2--2--2L-2--2--2--2L-o|| 
--5-----5-----5--5--5--2L---|--2--2--2--2L-2--2--2--2L--|| 
-----------------------0L---|--0--0--0--0L-0--0--0--0L--|| 

                                                           
--0--0--0--0--0-----0--0----|--2-----2--2--2-----2--4L---| 
--0--0--0--0--0-----0--0----|--3-----3--3--3-----3--6L---| 
--1--1--1--1--1-----1--1----|--2-----2--2--2-----2--4L---| 
--2--2--2--2--2-----2--2----|--4-----4--4--4-----4--6L---| 
--2--2--2--2--2-----2--2----|--2-----2--2--2-----2--4L---| 
--0--0--0--0--0-----0--0----|----------------------------| 

                                                           
--4--4--4--4--4-----4--4----|--2-----2--2--2-----2--0L---| 
--6--6--6--6--6-----6--6----|--2-----2--2--2-----2--0L---| 
--4--4--4--4--4-----4--4----|--2-----2--2--2-----2--0L---| 
--6--6--6--6--6-----6--6----|--2-----2--2--2-----2--0L---| 
--4--4--4--4--4-----4--4----|--4-----4--4--4-----4--2L---| 
----------------------------|--2-----2--2--2-----2--0L---| 

                                                           
--0--0--0--0L-0--0--0--0----|--0-----0--0--0-----0--0L---| 
--0--0--0--0h-2--2--2--2----|--3-----3--3--3-----3--3L---| 
--0--0--0--0L-0--0--0--0----|--2-----2--2--2-----2--2L---| 
--0--0--0--2L-2--2--2--2----|--0-----0--0--0-----0--0L---| 
--2--2--2--0L-0--0--0--0----|----------------------------| 
--0--0--0-------------------|----------------------------| 

                                                           
--0--0--0--0--0-----0--0----|-----------------------2L---| 
--3--3--3--3--3-----3--3----|--2-----2--2--2-----2--2L---| 
--2--2--2--2--2-----2--2----|--2-----2--2--2-----2--2L---| 
--0--0--0--0--0-----0--0----|--2-----2--2--2-----2--2L---| 
----------------------------|--4-----4--4--4-----4--4L---| 
----------------------------|-----------------------4L---| 

                                                           
--2--2--2--2--2-----2--2----|--2.----2.----x.-2.-x.-4L---| 
--2--2--2--2--2-----2--2----|--3.----3.----x.-3.-x.-5L---| 
--2--2--2--2--2-----2--2----|--2.----2.----x.-2.-x.-4L---| 
--2--2--2--2--2-----2--2----|--4.----4.----x.-4.-x.-6L---| 
--4--4--4--4--4-----4--4----|--2.----2.----x.-2.-x.-4L---| 
--4--4--4--4--4-----4--4----|----------------------------| 

                                                           
--4--4--x--4L-4--4--x--5L---|--5--5--x--5L-5--5--x--0L---| 
--5--5--x--5L-5--5--x--5L---|--5--5--x--5L-5--5--x--0L---| 
--4--4--x--4L-4--4--x--7L---|--7--7--x--7L-7--7--x--1L---| 
--6--6--x--6L-6--6--x--7L---|--7--7--x--7L-7--7--x--2L---| 
--4--4--x--4L-4--4--x--5L---|--5--5--x--5L-5--5--x--2L---| 
----------------------------|-----------------------0L---| 

                                                           
--0--0--0--0L-0--0--0--0----|--5.----5.----x.-5.-x.-4L---| 
--0--0--0--0L-0--0--0--0----|--7.----7.----x.-7.-x.-5L---| 
--1--1--1--1L-1--1--1--1----|--6.----6.----x.-6.-x.-4L---| 
--2--2--2--2L-2--2--2--2----|--7.----7.----x.-7.-x.-6L---| 
--2--2--2--2L-2--2--2--2----|--5.----5.----x.-5.-x.-4L---| 
--0--0--0--0L-0--0--0--0----|----------------------------| 

                                                           
--4--4--x--4L-4--4--4--4----|--2-----2-----x--2--x--0L---| 
--5--5--x--6L-6--6--6--6----|--2-----2-----x--2--x--0L---| 
--4--4--x--4L-4--4--4--4----|--2-----2-----x--2--x--0L---| 
--6--6--x--6L-6--6--6--6----|--2-----2-----x--2--x--0L---| 
--4--4--x--4L-4--4--4--4----|--4-----4-----x--4--x--2L---| 
----------------------------|--2-----2-----x--2--x--0L---| 

                                                           
--0--0--0--0L-0--0--0--0----|--5.----5.----x.-5.-x.-4L---| 
--0--0--0--0h-2--2--2--2----|--7.----7.----x.-7.-x.-5L---| 
--0--0--0--0L-0--0--0--0----|--6.----6.----x.-6.-x.-4L---| 
--0--0--0--2L-2--2--2--2----|--7.----7.----x.-7.-x.-6L---| 
--2--2--2--0L-0--0--0--0----|--5.----5.----x.-5.-x.-4L---| 
--0--0--0-------------------|----------------------------| 

                                                           
--4--4--x--4L-4--4--4--4----|--2-----2-----x--2--x--0L---| 
--5--5--x--6L-6--6--6--6----|--2-----2-----x--2--x--0L---| 
--4--4--x--4L-4--4--4--4----|--2-----2-----x--2--x--0L---| 
--6--6--x--6L-6--6--6--6----|--2-----2-----x--2--x--0L---| 
--4--4--x--4L-4--4--4--4----|--4-----4-----x--4--x--2L---| 
----------------------------|--2-----2-----x--2--x--0L---| 

                                                           
--0--0--0--0L-0--0--0--0----|--5.----5.----x.-5.-x.-4L---| 
--0--0--0--0h-2--2--2--2----|--7.----7.----x.-7.-x.-5L---| 
--0--0--0--0L-0--0--0--0----|--6.----6.----x.-6.-x.-4L---| 
--0--0--0--2L-2--2--2--2----|--7.----7.----x.-7.-x.-6L---| 
--2--2--2--0L-0--0--0--0----|--5.----5.----x.-5.-x.-4L---| 
--0--0--0-------------------|----------------------------| 

                                                           
--4--4--x--4L-4--4--4--4----|--2-----2-----x--2--x--2L---| 
--5--5--x--6L-6--6--6--6----|--2-----2-----x--2--x--4L---| 
--4--4--x--4L-4--4--4--4----|--2-----2-----x--2--x--2L---| 
--6--6--x--6L-6--6--6--6----|--2-----2-----x--2--x--4L---| 
--4--4--x--4L-4--4--4--4----|--4-----4-----x--4--x--2L---| 
----------------------------|--2-----2-----x--2--x-------| 

                                                           
--2--2--x--2L-2--2--2--2----|--x-----5-----x--x--x--4L---| 
--4--4--x--4L-4--4--4--4----|--x-----7-----x--x--x--5L---| 
--2--2--x--2L-2--2--2--2----|--x-----6-----x--x--x--4L---| 
--4--4--x--4L-4--4--4--4----|--x-----7-----x--x--x--6L---| 
--2--2--x--2L-2--2--2--2----|--x-----5-----x--x--x--4L---| 
----------------------------|----------------------------| 

                                                           
--4--4--4--4-----3-----2----|--2-----2--2--2-----2--0L---| 
--5--5--5--5-----5-----3----|--3-----3--3--3-----3--0L---| 
--4--4--4--4-----4-----2----|--2-----2--2--2-----2--1L---| 
--6--6--6--6-----5-----4----|--4-----4--4--4-----4--2L---| 
--4--4--4--4-----3-----2----|--2-----2--2--2-----2--2L---| 
----------------------------|-----------------------0L---| 

                                                           
--0--0--0--0--x--0----------|--5.----5.----x.-5.-x.-4L---| 
--0--0--0--0--x--0----------|--7.----7.----x.-7.-x.-6L---| 
--1--1--1--1--x--1----------|--6.----6.----x.-6.-x.-4L---| 
--2--2--2--2--x--2----------|--7.----7.----x.-7.-x.-6L---| 
--2--2--2--2--x--2----------|--5.----5.----x.-5.-x.-4L---| 
--0--0--0--0--x--0----------|----------------------------| 

                                                           
--4--4--x--4L-4--4--4--4----|--2.----2.----x.-2.-x.-0L---| 
--6--6--x--6L-6--6--6--6----|--2.----2.----x.-2.-x.-0L---| 
--4--4--x--4L-4--4--4--4----|--2.----2.----x.-2.-x.-0L---| 
--6--6--x--6L-6--6--6--6----|--2.----2.----x.-2.-x.-0L---| 
--4--4--x--4L-4--4--4--4----|--4.----4.----x.-4.-x.-2L---| 
----------------------------|--2.----2.----x.-2.-x.-0L---| 

                                                           
--0--0--0--0L-0--0--0--0----|--2-----2-----x--2--x--4L---| 
--0--0--0--0h-2--2--2--2----|--3-----3-----x--3--x--6L---| 
--0--0--0--0L-0--0--0--0----|--2-----2-----x--2--x--4L---| 
--0--0--0--2L-2--2--2--2----|--4-----4-----x--4--x--6L---| 
--2--2--2--0L-0--0--0--0----|--2.----2.----x.-2.-x.-4L---| 
--0--0--0-------------------|----------------------------| 

                                                                   
--4--4--x--4L-4--4--4--4----|--2-----2-----x--2--x--0----|-------| 
--6--6--x--6L-6--6--6--6----|--2-----2-----x--2--x--0----|-------| 
--4--4--x--4L-4--4--4--4----|--2-----2-----x--2--x--0----|-------| 
--6--6--x--6L-6--6--6--6----|--2-----2-----x--2--x--0----|-------| 
--4--4--x--4L-4--4--4--4----|--4-----4-----x--4--x--2----|-------| 
----------------------------|--2-----2-----x--2--x--0----|-------| 

                                                           
--2-----2-----x--2--x--4L---|--4--4--x--4L-4--4--4--4----| 
--3-----3-----x--3--x--6L---|--6--6--x--6L-6--6--6--6----| 
--2-----2-----x--2--x--4L---|--4--4--x--4L-4--4--4--4----| 
--4-----4-----x--4--x--6L---|--6--6--x--6L-6--6--6--6----| 
--2-----2-----x--2--x--4L---|--4--4--x--4L-4--4--4--4----| 
----------------------------|----------------------------| 

                                                           
--2.----2.----x.-2.-x.-0L---|--0--0--0--0L-0--0--0--0----| 
--2.----2.----x.-2.-x.-0L---|--0--0--0--0h-2--2--2--2----| 
--2.----2.----x.-2.-x.-0L---|--0--0--0--0L-0--0--0--0----| 
--2.----2.----x.-2.-x.-0L---|--0--0--0--2L-2--2--2--2----| 
--4.----4.----x.-4.-x.-2L---|--2--2--2--0L-0--0--0--0----| 
--2.----2.----x.-2.-x.-0L---|--0--0--0-------------------| 

                                                           
--2.----2.----x.-2.-x.-4L---|--4--4--x--4L-4--4--4--4----| 
--3.----3.----x.-3.-x.-6L---|--6--6--x--6L-6--6--6--6----| 
--2.----2.----x.-2.-x.-4L---|--4--4--x--4L-4--4--4--4----| 
--4.----4.----x.-4.-x.-6L---|--6--6--x--6L-6--6--6--6----| 
--2.----2.----x.-2.-x.-4L---|--4--4--x--4L-4--4--4--4----| 
----------------------------|----------------------------| 

                                                           
--5-----5-----5--5--5--0L---|--0--0--0--0L-0--0--0--0----| 
--5-----5-----5--5--5--0L---|--0--0--0--0L-0--0--0--0----| 
--7-----7-----7--7--7--1L---|--1--1--1--1L-1--1--1--1----| 
--7-----7-----7--7--7--2L---|--2--2--2--2L-2--2--2--2----| 
--5-----5-----5--5--5--2L---|--2--2--2--2L-2--2--2--2----| 
-----------------------0L---|--0--0--0--0L-0--0--0--0----| 

                                                           
--x-------------------------|----------------------------| 
--x--7--x--7--x--7--x--7L---|--7--7--x--7--x--7--x--7----| 
--x--8--x--8--x--8--x--6L---|--6--6--x--6--x--6--x--6----| 
--x--7--x--7--x--7--x--7L---|--7--7--x--7--x--7--x--7----| 
--x--5--x--5--x--6--x--5L---|--5--5--x--5--x--5--x--5----| 
--x-------------------------|----------------------------| 

                                                           
-----4--x--4--x--4--x--3L---|--3--3--x--3--x--3--x--3----| 
--x--5--x--5--x--5--x--5L---|--5--5--x--5--x--5--x--5----| 
--x--4--x--4--x--4--x--4L---|--4--4--x--4--x--4--x--4----| 
--x--6--x--6--x--6--x--5L---|--5--5--x--5--x--5--x--5----| 
--x--4--x--4--x--4--x--3L---|--3--3--x--3--x--3--x--3----| 
----------------------------|----------------------------| 

                                                           
--2-----2-----x--2--x--4L---|--4--4--x--4L-4--4--4--4----| 
--3-----3-----x--3--x--6L---|--6--6--x--6L-6--6--6--6----| 
--2-----2-----x--2--x--4L---|--4--4--x--4L-4--4--4--4----| 
--4-----4-----x--4--x--6L---|--6--6--x--6L-6--6--6--6----| 
--2.----2.----x.-2.-x.-4L---|--4--4--x--4L-4--4--4--4----| 
----------------------------|----------------------------| 

                                                            
--5-----5-----5--5--5--0L---|--0--x--x--x--x--x--x--x----|| 
--5-----5-----5--5--5--0L---|--0--x--x--x--x--x--x--x----|| 
--7-----7-----7--7--7--1L---|--1--x--x--x--x--x--x--x----|| 
--7-----7-----7--7--7--2L---|--2--x--x--x--x--x--x--x----|| 
--5-----5-----5--5--5--2L---|--2--x--x--x--x--x--x--x----|| 
-----------------------0L---|--0--x--x--x--x--x--x--x----|| 

                                                          
-5-----5-----x--5--x--4L---|--4--4--x--4L-4--4--4--4----| 
-7-----7-----x--7--x--5L---|--5--5--x--6L-6--6--6--6----| 
o6-----6-----x--6--x--4L---|--4--4--x--4L-4--4--4--4----| 
o7-----7-----x--7--x--6L---|--6--6--x--6L-6--6--6--6----| 
-5.----5.----x.-5.-x.-4L---|--4--4--x--4L-4--4--4--4----| 
---------------------------|----------------------------| 

                                                           
--2-----2-----x--2--x--0L---|--0--0--0--0L-0--0--0--0----| 
--2-----2-----x--2--x--0L---|--0--0--0--0h-2--2--2--2----| 
--2-----2-----x--2--x--0L---|--0--0--0--0L-0--0--0--0----| 
--2-----2-----x--2--x--0L---|--0--0--0--2L-2--2--2--2----| 
--4-----4-----x--4--x--2L---|--2--2--2--0L-0--0--0--0----| 
--2.----2.----x.-2.-x.-0L---|--0--0--0-------------------| 

                                                           
--5-----5-----x--5--x--4L---|--4--4--x--4L-4--4--4--4----| 
--7-----7-----x--7--x--5L---|--5--5--x--6L-6--6--6--6----| 
--6-----6-----x--6--x--4L---|--4--4--x--4L-4--4--4--4----| 
--7-----7-----x--7--x--6L---|--6--6--x--6L-6--6--6--6----| 
--5.----5.----x.-5.-x.-4L---|--4--4--x--4L-4--4--4--4----| 
----------------------------|----------------------------| 

                                                           
--2-----2-----x--2--x--0L---|--0--0--0--0L-0--0--0--0L--|| 
--2-----2-----x--2--x--0L---|--0--0--0--0h-2--2--2--2L--|| 
--2-----2-----x--2--x--0L---|--0--0--0--0L-0--0--0--0L-o|| 
--2-----2-----x--2--x--0L---|--0--0--0--2L-2--2--2--2L-o|| 
--4-----4-----x--4--x--2L---|--2--2--2--0L-0--0--0--0L--|| 
--2.----2.----x.-2.-x.-0L---|--0--0--0------------------|| 

                                                           
--0--0--x--0L-0--0--x--x----|--2-----x--2L-2--2--2--0L---| 
--2--2--x--2L-2--2--x--x----|--3-----x--3L-3--3--3--0L---| 
--0--0--x--0L-0--0--x--x----|--2-----x--2L-2--2--2--1L---| 
--2--2--x--2L-2--2--x--x----|--4-----x--4L-4--4--4--2L---| 
--0--0--x--0L-0--0--x--x----|--2-----x--2L-2--2--2--2L---| 
----------------------------|-----------------------0L---| 

                                  =       =       =       =       = 
--0--0--0--0L-0--0--0--0----|--5--5----|--5----|--5----|--5----|--5L---| 
--0--0--0--0L-0--0--0--0----|--7--7----|--7----|--7----|--7----|--7L---| 
--1--1--1--1L-1--1--1--1----|--6--6----|--6----|--6----|--6----|--6L---| 
--2--2--2--2L-2--2--2--2----|--7--7----|--7----|--7----|--7----|--7L---| 
--2--2--2--2L-2--2--2--2----|--5--5----|--5----|--5----|--5----|--5L---| 
--0--0--0--0L-0--0--0--0----|----------|-------|-------|-------|-------| 


--5--5----------|| 
--7--7----------|| 
--6--6----------|| 
--7--7----------|| 
--5--5----------|| 
----------------|| 
share this page

See Also: