E-Chords
40 Below Summer

Snake Charmer(Tabs)

40 Below Summer

roll up this ad to continue

Key: A#
Tuning: Drop A# (A# F A# D# G C) 

Riff 1 (clean w/ reverb and slight delay, let all notes ring out) 
 C|----------13-------13-------13----------------13-------13-------13-----| 
 G|----11-------11-------11-------11-------11-------11-------11-----------| 
D#|-14----14-------14-------14-------14-14----14-------14-------14--------| 
A#|-----------------------------------------------------------------------| 
 F|--------------------------------------------------------------------\\-| 
A#|--------------------------------------------------------------------\\-| 

Riff 2 (distortion) 
 C|-----------------------------------------------------| 
 G|-----------------------------------------------------| 
D#|-9-9-----9-9-9-----9-9-9---9-9-----9-9-9-------------| 
A#|-8-8-----8-8-8-----8-8-8---8-8-----8-8-8-------------| 
 F|-7-7-0-0-7-7-7-0-0-7-7-7-0-7-7-0-0-7-7-7-------------| 
A#|-----0-0-------0-0-------0-----0-0-------8-5-7-5-3-0-| 
        * *       * *             * *       * * * * * * 

 C|-------------------------------------------------------------| 
 G|-------------------------------------------------------------| 
D#|-9-9-----9-9-9-----9-9-9---9-9-----9-9-9---------------------| 
A#|-8-8-----8-8-8-----8-8-8---8-8-----8-8-8---------------------| 
 F|-7-7-0-0-7-7-7-0-0-7-7-7-0-7-7-0-0-7-7-7-----------------3-5-| 
A#|-----0-0-------0-0-------0-----0-0-------8-5-7-5-3-0-5-7-----| 
        * *       * *             * *       * * * * * * * * * * 

 C|-----------------------------------------------------| 
 G|-----------------------------------------------------| 
D#|-6-6-----6-6-6-----6-6-6---6-6-----6-6-6-------------| 
A#|-x-x-----x-x-x-----x-x-x---x-x-----x-x-x-------------| 
 F|-4-4-0-0-4-4-4-0-0-4-4-4-0-4-4-0-0-4-4-4-------------| 
A#|-----0-0-------0-0-------0-----0-0-------8-5-7-5-3-0-| 
        * *       * *             * *       * * * * * * 

 C|-------------------------------------------------------------| 
 G|-------------------------------------------------------------| 
D#|-6-6-----6-6-6-----6-6-6---6-6-----6-6-6---------------------| 
A#|-x-x-----x-x-x-----x-x-x---x-x-----x-x-x---------------------| 
 F|-4-4-0-0-4-4-4-0-0-4-4-4-0-4-4-0-0-4-4-4-----------------3-5-| 
A#|-----0-0-------0-0-------0-----0-0-------8-5-7-5-3-0-5-7-----| 
        * *       * *             * *       * * * * * * * * * * 

 C|----------|            
 G|----------| 
D#|----------| 
A#|-5-5--5-5-| 
 F|-4-4--4-4-| 
A#|-3-3--3-3-| 
    * *  * * 

Riff 3 
 C|----------------------------------------------------| 
 G|----------------------------------------------------| 
D#|----------------------------------------------------| 
A#|----------------------------------------------------| 
 F|-3/5--------3/5-----3-/6-6-3/5--------3/5-------4---| 
A#|-----0--0-0-----0-0------------0--0-0-----0-0-1---1-| 

 C|---------------------------------------------------| 
 G|---------------------------------------------------| 
D#|---------------------------------------------------| 
A#|--------------------5-/8-8-5-5---5-5---5-5---------| 
 F|-3/5--------3/5-----3-/6-6-3-3-0-3-3-0-1-1-0-5-5-5-| 
A#|-----0--0-0-----0-0--------3-3-0-3-3-0-1-1-0-5-3-0-| 
                                  *     *     * * * * 

 C|----------------------------------------------------| 
 G|----------------------------------------------------| 
D#|-5/7--------5/7-----5-/8-8-5/7--------5/7-----------| 
A#|-x-x--------x-x-----x--x-x-x-x--------x-x-----------| 
 F|-3/5--------3/5-----3-/6-6-3/5--------3/5-------4---| 
A#|-----0--0-0-----0-0------------0--0-0-----0-0-1---1-| 

 C|---------------------------------------------------| 
 G|---------------------------------------------------| 
D#|-5/7--------5/7------------------------------------| 
A#|-x-x--------x-x-----5-/8-8-5-5---5-5---5-5---------| 
 F|-3/5--------3/5-----3-/6-6-3-3-0-3-3-0-1-1-0-5-5-5-| 
A#|-----0--0-0-----0-0--------3-3-0-3-3-0-1-1-0-5-3-0-| 
                                  *     *     * * * * 

Play Riff 1 x1 (clean) 
Play Riff 2 x1 (distortion) 
Play Riff 3 x1 

Riff 4 
 C|-----------------------------------------------------------| 
 G|-----------------------------------------------------------| 
D#|-----------------------------------------------------------| 
A#|--------10-10---8-8---7h8p7---7----------7-7---5-5---------| x2 
 F|----------------------------8---8--------------------------| 
A#|-8--8-8-------8-----8-------------5--5-5-----5-----5-0-1-0-| 

 C|---------------------------------------------------| 
 G|---------------------------------------------------| 
D#|---------------------------------------------------| 
A#|---------------------------------------------------| 
 F|--------------------3-4-5--------------------3-4-5-| 
A#|-0-1-0-/5-4-3-0-1-0-------0-1-0-/5-4-3-0-1-0-------| 

 C|----------------------------------------------------------------------| 
 G|----------------------------------------------------------------------| 
D#|---------/14-14---/12-12---10h12p10----10-----------------------------| 
A#|------------------------------------12----12--------7-7---5-5---------| x2 
 F|-/8--8-8--------8--------8--------------------------------------------| 
A#|---------------------------------------------5--5-5-----5-----5-0-1-0-| 

 C|---------------------------------------------------| 
 G|---------------------------------------------------| 
D#|---------------------------------------------------| 
A#|---------------------------------------------------| 
 F|--------------------3-4-5--------------------3-4-5-| 
A#|-0-1-0-/5-4-3-0-1-0-------0-1-0-/5-4-3-0-1-0-------| 

 C|----------------------------------------------------| 
 G|----------------------------------------------------| 
D#|----------------------------------------------------| 
A#|-------------7-6-5-12-11-10-------------7-6-5-5-6-7-| 
 F|-0-1-0-5-4-3-5-4-3-10-9--8--0-1-0-5-4-3-5-4-3-3-4-5-| 
A#|-0-1-0-5-4-3----------------0-1-0-5-4-3-------------| 
    * * * * * * * * * *  *  *  * * * * * * * * * * * * 

 C|-----------------------------------------------------| 
 G|-----------------------------------------------------| 
D#|-----------------------------------------------------| 
A#|-------------7-6-5-/12-11-10-------------7-6-5-5-6-7-| 
 F|-0-1-0-5-4-3-5-4-3-/10-9--8--0-1-0-5-4-3-5-4-3-3-4-5-| 
A#|-0-1-0-5-4-3-----------------0-1-0-5-4-3-------------| 
    *   *                       *   * 

Fill 1 
 C|-----------------------------------------------------| 
 G|-----------------------------------------------------| 
D#|-6-6-----6-6-6-----6-6-6---6-6-----6-6-6-------------| 
A#|-x-x-----x-x-x-----x-x-x---x-x-----x-x-x-------------| 
 F|-4-4-0-0-4-4-4-0-0-4-4-4-0-4-4-0-0-4-4-4-------------| 
A#|-----0-0-------0-0-------0-----0-0-------8-5-7-5-3-0-| 
        * *       * *             * *       * * * * * * 

Play Riff 3 x1.5 

Riff 5 
 C|--------------------------------------------------------| 
 G|--------------------------------------------------------| 
D#|--------------------------------------------------------| 
A#|----------------------------------7-6-5-/12-11-10-5-6-7-| 
 F|--------5-4-3-/10-9-8-3-4-5-5-4-3-5-4-3-/10-9--8--3-4-5-| 
A#|-/5-4-3---------------------5-4-3-----------------------| 

 C|---------------------------------------------------------| 
 G|---------------------------------------------------------| 
D#|---------------------------------------------------------| 
A#|-------7-6-5-12-11-10-5-6-7-------7-6-5-/12-11-10-5-6-7\-| 
 F|-5-4-3-5-4-3-10-9--8--3-4-5-5-4-3-5-4-3-/10-9--8--3-4-5\-| 
A#|-5-4-3----------------------5-4-3------------------------| 
    * * * * * * *  *  *  * * * * * * * * * 

Enjoy!! 
share this page

See Also: