E-Chords
40 Below Summer

Predator(Tabs)

40 Below Summer

roll up this ad to continue

Key: A#
Tuning: Drop A# (A#,F,A#,D#,G,C) 

Riff 1 
 C|---------------------------------------------------------------------| 
 G|---------------------------------------------------------------------| 
D#|------------------------------3---3----------------------------------| 
A#|----------------/3-2------------7------------------/3-2--------------| 
 F|-0--0--0-0-0-0-------0-0-0-0--------0--0--0-0-0-0-------3-5~---------| 
A#|-0--0--0-0-0-0-------0-0-0-0--------0--0--0-0-0-0-------------5-0-2b-| 
    *  *  * * * *       * * * *        *  *  * * * * 

 C|----------------------------------------------------------------------| 
 G|----------------------------------------------------------------------| 
D#|------------------------------/7-5-7----------------------------------| 
A#|----------------/7-5--------------------------------/7-5-2-3~---------| 
 F|-0--0--0-0-0-0-------0-0-0-0---------0--0--0-0-0-0--------------------| 
A#|-0--0--0-0-0-0-------0-0-0-0---------0--0--0-0-0-0-------------3-5-2b-| 
    *  *  * * * *       * * * *         *  *  * * * * 

Play Riff 1 x2 

Riff 2 (clean, let all notes/chords ring out)   'Just like desire, won't disappear...' 
 C|----5-----5-----4-----4-------| 
 G|------6-----6-----6-----6-----| 
D#|--------7-----7-----7-----7---| 
A#|-0----------------------------| x4 
 F|----------------------------3-| 
A#|------------------------------| 

 C|------------------------------------------------------------| 
 G|-----3-----3-----3/5---5-----5-------3-----3-----5--8-6-5---| 
D#|---0---0-----0---0-0-----0-----0---0---0-----0---0--------5-| 
A#|-----------------x-x-----------------------------x----------| 
 F|-1-------1-----1-1/3-3-----3-----1-------1-----1-3----------| 
A#|------------------------------------------------------------| 

 C|----5-----5-----4-----4-------| 
 G|------6-----6-----6-----6-----| 
D#|--------7-----7-----7-----7---| 
A#|-0----------------------------| x4 
 F|----------------------------3-| 
A#|------------------------------| 

 C|---------------------------------------------------| 
 G|-----3-----3-----3/5---5-----5-------3-----3-----5-| 
D#|---0---0-----0---0-0-----0-----0---0---0-----0---0-| 
A#|-----------------x-x-----------------------------x-| 
 F|-1-------1-----1-1/3-3-----3-----1-------1-----1-3-| 
A#|---------------------------------------------------| 

Fill 1   'You will believe...' 
 C|-------| 
 G|-------| 
D#|-3---3-| 
A#|---7---| 
 F|-------| 
A#|-------| 

Play Riff 1 x2   'Just lie, lie down and take it...' 

Riff 3   'Nothing can stop what has begun...' 
 C|------------------------------------------------------------------| 
 G|------------------------------------------------------------------| 
D#|-3-3-3-3-3-3------------------------------------------------------| 
A#|-3-3-3-3-3-3-5-5-5-7-7------------7-3-0-------2-3-----------2-3-2-| 
 F|-1-1-1-1-1-1-5-5-5-7-7--0-0--0-0--------7-3-0-----0-0--0-0--3-3-3-| 
A#|-------------5-5-5-7-7--0-0--0-0------------------0-0--0-0--------| 
                           * *  * *                  * *  * * 

 C|------------------------------------------------------------------------------------------------------------| 
 G|------------------------------------------------------------------------------------------------------------| 
D#|-3-3-3-3-3-3------------------------------------------------------------------------------------------------| 
A#|-3-3-3-3-3-3-5-5-5-2-3-2-----------7-3-0-------2-3-----------2-3-2-----------7-3-0-------2-3----------2-3-2-| 
 F|-1-1-1-1-1-1-5-5-5-2-3-2-0-0--0-0--------7-3-0-----0-0--0-0--3-3-3-0-0--0-0--------7-3-0-----0-0--0-0-3-3-3-| 
A#|-------------5-5-5-2---2-0-0--0-0------------------0-0--0-0--------0-0--0-0------------------0-0--0-0-------| 
                            * *  * *                  * *  * *        * *  * *                  * *  * * 

Play Riff 2 x1   'Just like the heel upon your spine...' 
Play Fill 1 x1   'You'll always be afraid...' 
Play Riff 1 x2   'Just lie, lie down and take it...' 
Play Riff 3 x1   'Nothing can stop what has begun...' 
                  (there's an added rest during this riff this time through, listen to song for it) 

Fill 2 
 C|--------------------------------------------------------------------------| 
 G|--------------------------------------------------------------------------| 
D#|--------------------------------------------------------------------------| 
A#|--------------------------------------------------------------7h8p7-------| 
 F|-0-0-0-0--0-0--0-0-0-0--0-0--0-0--0-0-0-0--0-0--0-0-0-0---7h8-------8p7h8-| 
A#|-0-0-0-0--0-0--0-0-0-0--0-0--0-0--0-0-0-0--0-0--0-0-0-0-------------------| 
    * * * *  * *  * * * *  * *  * *  * * * *  * *  * * * * 

Riff 4   'Pull that string...' 
 C|--------------------------------------------------------------------------| 
 G|--------------------------------------------------------------------------| 
D#|--------------------------------------------------------------------------| 
A#|--------------------------------------------------------------7h8p7-------| 
 F|-0-0-0-0--0-0--0-0-0-0--0-0--0-0--0-0-0-0--0-0--0-0-0-0---7h8-------8p7h8-| 
A#|-0-0-0-0--0-0--0-0-0-0--0-0--0-0--0-0-0-0--0-0--0-0-0-0-------------------| 
    * * * *  * *  * * * *  * *  * *  * * * *  * *  * * * * 

 C|---------------------------------------------------------------------| 
 G|---------------------------------------------------------------------| 
D#|---------------------------------------------------------------------| 
A#|---------------------------------------------------------------------| 
 F|-0-0-0-0--0-0--0-0-0-0--0-0--0-0--0-0-0-0--0-0-----------------------| 
A#|-0-0-0-0--0-0--0-0-0-0--0-0--0-0--0-0-0-0--0-0-8-8-8-8~--5-5-5-7-7-7-| 
    * * * *  * *  * * * *  * *  * *  * * * *  * * 

Play Riff 4 x2   'Stored in flames...' 

Riff 5   'And if I die for you...' 
 C|----------------------------------------------------------------| 
 G|----------------------------------------------------------------| 
D#|----------------------------------------------------------------| 
A#|--------------------------------------------------------7h8p7---| 
 F|----------0-0-----------0-0-----------0-0-----------7h8-------8-| 
A#|-0-0-0-8b-0-0--0-0-0-1b-0-0--0-0-0-5b-0-0--0-0-0-3b-------------| 
    * * *    * *  * * *    * *  * * *    * *  * * * 

Play Riff 5 x4   'And as I break you...' 
Play Riff 2 x0.5 'Waiting for a savior...' 
Play Fill 1 x1   'You're not the only one...' 
Play Riff 1 x2   'Just lie, lie down and take it...' 
Play Riff 3 x1   'Nothing can stop what has begun...' 

Ending 
 C|--------------------------| 
 G|--------------------------| 
D#|--------------------------| 
A#|-0~-----------------------| 
 F|-0~-----------------------| 
A#|-0~-----------------------| 

Enjoy!! 
share this page

See Also: