E-Chords
Los Invasores De Nuevo León

Acepto El Reto(Keyboard chords)

Los Invasores De Nuevo León

Key: A
    intro 

          A               A7                 D     F#7         Bm 
e---0-0-2-0-|-------0-0-2-0-|----------------2---2-----0---0------| 
b---2-0-3-2-|-------2-0-3-2-|-2-3-5-5-3-2-5--3-3---3-2---2---2-3--| 
g-----------|-----2---------|----------------------------------4--| 
d-2---------|-2-4-----------|-------------------------------------| 
a-----------|---------------|-------------------------------------| 
e-----------|---------------|-------------------------------------| 


      E7        A     F#7     Bm                E7     A 
e-2-4-5-4-2-4-2-0-|-0-2-4-2-0-2-0-0-|---------------------| 
b-3-5-7-5-3-5-3-0-|-2-3-5-3-2-3-2-0-|-0-0-2-0-------------| 
g-----------------|-----------------|---------2-1-2/4--2--| 
d-----------------|-----------------|---------------------| 
a-----------------|-----------------|---------------------| 
e-----------------|-----------------|---------------------| 


                A 
e----------------------| 
b----------------------| 
g---------------2-2-2--| 
d-------------2-2-2-2--| 
a-------0-2-4---4-4-4--| 
e-0-2-4----------------| 


           A 
Acepto el reto que aparentemente 

                  E7 
en broma tú me hiciste 

F#7        Bm                E7 
de ver si puedo lograr encontrar 

                 A 
con quién sustituirte 


            A 
Tal vez tú piensas 

                  A7                 D    F#7 
que a mi edad no puedo conquistar a nadie 

Bm    E7             A               F#7      Bm 
Recuerda que soy el mismo que en el pasado domingo 

     E7          A 
todavía te entregaste 


                E7 
Nomas piénsalo bien 

que a mí me diste todo 

                  A 
sin ponerme condiciones 


                E7 
Si a ti te conquiste 

aquel día que canté 

                   A 
aquellas tres canciones 



            A 
Tal vez tú piensas 

                  A7                 D    F#7 
que a mi edad no puedo conquistar a nadie 

Bm    E7             A               F#7      Bm 
Recuerda que soy el mismo que en el pasado domingo 

     E7          A 
todavía te entregaste 

    (solo es similar a intro) 

          A               A7                 D     F#7         Bm 
e---0-0-2-0-|-------0-0-2-0-|----------------2---2-----0---0------| 
b---2-0-3-2-|-------2-0-3-2-|-2-3-5-5-3-2-5--3-3---3-2---2---2-3--| 
g-----------|-----2---------|----------------------------------4--| 
d-2---------|-2-4-----------|-------------------------------------| 
a-----------|---------------|-------------------------------------| 
e-----------|---------------|-------------------------------------| 


      E7        A     F#7     Bm                E7     A 
e-2-4-5-4-2-4-2-0-|-0-2-4-2-0-2-0-0-|---------------------| 
b-3-5-7-5-3-5-3-0-|-2-3-5-3-2-3-2-0-|-0-0-2-0-------------| 
g-----------------|-----------------|---------2-1-2/4--2--| 
d-----------------|-----------------|---------------------| 
a-----------------|-----------------|---------------------| 
e-----------------|-----------------|---------------------| 


                A 
e----------------------| 
b----------------------| 
g---------------2-2-2--| 
d-------------2-2-2-2--| 
a-------0-2-4---4-4-4--| 
e-0-2-4----------------| 


                E7 
Nomas piénsalo bien 

que a mí me diste todo 

                  A 
sin ponerme condiciones 


                E7 
Si a ti te conquiste 

aquel día que canté 

                   A 
aquellas tres canciones 



            A 
Tal vez tú piensas 

                  A7                 D    F#7 
que a mi edad no puedo conquistar a nadie 

Bm    E7             A               F#7      Bm 
Recuerda que soy el mismo que en el pasado domingo 

     E7          A 
todavía te entregaste 


D     E7             A               F#7      Bm 
Recuerda que soy el mismo que en el pasado domingo 

     E7          A 
todavía te entregaste 


    outro 

                               E7 A 
 e---0-0-2-0-|-------0-0-2-0-|-0--5-- 
 b---2-0-3-2-|-------2-0-3-2-|-5--5-- 
 g-----------|-----2---------|-7--6-- 
 d-2---------|-2-4-----------|-6--7-- 
 a-----------|---------------|-7--7-- 
 e-----------|---------------|-0--0-- 

roll up this ad to continue

share this page

See Also: