E-Chords
Gato Pérez

La Rumba De Barcelona(Keyboard chords)

Gato Pérez

Key: Gm
Frase 1: 
e|-------------------------------------3 
B|-------------------------------------3 
G|-------------------------------------3 
D|-------------------------8--8-7-5----5 
A|-5p4h5-6p5p4---------4-5-------------5 
E|-------------6-5-3-------------------3 

Solo Intro: 

e|---6-6-5-6-5-6--6-6-5-5--5-6-5-6------6-6-5-6-5-6--6-6-5-5--2-5-2-3- 
B|-3----------------------------------3------------------------------- 
G|-------------------------------------------------------------------- 
D|-------------------------------------------------------------------- 
A|-------------------------------------------------------------------- 
E|-------------------------------------------------------------------- 

e|-6-5-3----------------------------3-5---6-5-8-6-5------------------- 
B|-------6-4-3----------------3-4-6----------------------------------- 
G|-------------5-3-2----2-3-5----------------------------------------- 
D|--------------------5----------------------------------------------- 
A|-------------------------------------------------------------------- 
E|-------------------------------------------------------------------- 

e|-11-10-11-13-11-11-10------------------------11-10-13-11-10-14------ 
B|----------------------13-11-13-10-11-13-10-------------------------- 
G|-------------------------------------------------------------------- 
D|-------------------------------------------------------------------- 
A|-------------------------------------------------------------------- 
E|-------------------------------------------------------------------- 

x 1 Frase 1 


   Gm 
La Rumba que coneixem 

            D7      (D#7) Gm6 
no és de la Xina ni del Japó (bis). 

          Cm7     (F7)   A#maj7 
La nostra Rumba de Barcelona 

  (D#maj7) A7              D7 
està marejada de voltar el món (bis). 


   Gm 
La Rumba neix al carrer 

            D7      (D#7) Gm6 
filla de Cuba i d'un gitanet (bis). 

        Cm7          (F7)  A#maj7 
I sa germana que és l'Havanera 

(D#maj7)    A7            D7 
viu gronxadeta entre mariners (bis). 

Pre-estribillo: 

Gm - Gmmaj7 - Gm7 - Gm6 

Frase pre-estribillo: 
e|----------15-14-------------13-12---- 
B|----11-15-------------11-15---------- 
G|-12----------------12---------------- x2 
D|------------------------------------- 
A|------------------------------------- 
E|------------------------------------- 

(Estribillo) 

      Gm             Cm7 
Somorrostro, Bon pastor, 

       F7             A#maj7 
Hostafrancs, la Guineueta, 

           D#maj7     A7 
Sants, Carmelo, Guinardó, 

       D#7         D7 
Poble Sec, Barceloneta. 

      Gm           Cm7 
Meridiana, Hospitalet, 

         F7            A#maj7 
Sant Adrià, Verdum, Roquetes, 

           D#maj7            A7 
Vall d'Hebron, Les Corts, Sagrera, 

       D#7             D7 
Horta, Coll, Trinitat Vella. 

x 1 Frase 1 


   Gm 
La nena té un ritme inquiet 

            D7      (D#7)     Gm6 
penja el compàs i balluga els peus (bis). 

          Cm7    (F7)   A#maj7 
I sa família de ritmes guapos 

  (D#maj7) A7              D7 
viuen contents en el estranger (bis). 

   Gm 
La Rumba neix al carrer 

            D7      (D#7) Gm6 
filla de Cuba i d'un gitanet (bis). 

        Cm7          (F7)  A#maj7 
I sa germana que és l'Havanera 

(D#maj7)    A7            D7 
viu gronxadeta entre mariners (bis). 

Pre-estribillo: 

Gm - Gmmaj7 - Gm7 - Gm6 

2 x Frase pre-estribillo 

(Estribillo) 

      Gm             Cm7 
El Candombe a l'Uruguai, 

       F7           A#maj7 
la Milonga és argentina, 

      D#maj7   A7 
el Bolero mexica 

       D#7          D7 
i la Plena que és boricua. 

      Gm           Cm7 
Fabricant el Uauancó 

           F7           A#maj7 
que és un ritme de New York, 

         D#maj7     A7 
neix un boogaloo simpàtic 

           D#7          D7 
que és el ritme més mafiós. 

1 x Frase 1 

Solo: 

e|---3-5-6-5-3-6-----8-10-11-10-8-10------------------------------------------ 
B|-3---------------8-------------------11-10-8-10--11-10-8-10---8---11-10-8-7- 
G|----------------------------------------------------------------8----------- 
D|---------------------------------------------------------------------------- 
A|---------------------------------------------------------------------------- 
E|---------------------------------------------------------------------------- 

e|-11-10h11p10-11-10---11-10h11p10--------------11-10------------------------- 
B|---------------------------------11-10--------------13-11-10-13-11---------- 
G|---------------------------------------12-10-------------------------------- 
D|---------------------------------------------------------------------------- 
A|---------------------------------------------------------------------------- 
E|---------------------------------------------------------------------------- 

e|-11-11-11---12-12-12-----11-11-11-13-13-13-11-10h11p10---------------------- 
B|---------------------------------------------------------------------------- 
G|----------12---------14----------------------------------------------------- 
D|---------------------------------------------------------------------------- 
A|---------------------------------------------------------------------------- 
E|---------------------------------------------------------------------------- 


      Gm             Cm7 
Somorrostro, Bon pastor, 

       F7             A#maj7 
Hostafrancs, la Guineueta, 

           D#maj7     A7 
Sants, Carmelo, Guinardó, 

       D#7        D7 
Poble Sec, Barceloneta. 

      Gm           Cm7 
Meridiana, Hospitalet, 

         F7            A#maj7 
Sant Adrià, Verdum, Roquetes, 

           D#maj7            A7 
Vall d'Hebron, Les Corts, Sagrera, 

       D#7             D7 
Horta, Coll, Trinitat Vella. 

          Gm          Cm7 
Camp de l'Arpa, Montjuïc, 

          F7            A#maj7 
Born, la Mina i Sant Andreu, 

       D#maj7           A7 
el Morrot per allà Can Tunis, 

       D#7         D7 
Zona Franca i Poblenou, 

        Gm             Cm7 
Santa Eulàlia, Casc Antic, 

          F7           A#maj7 
Clot, el port i la Verneda. 

        D#maj7          A7 
Gràcia rei de tots els barris 

       D#7            D7 
de la festa i del sabor. 

1 x Frase 1 

FINAL 

Posiciones recomendadas para los acordes: 


Gm    D7     D#7    Gm6    Cm7    F7     A#maj7 D#maj7 A7     Gmmaj7 Gm7 
-3-   ---    ---    ---    -8-    ---    ---    ---    -5-    -3-    -3- 
-3-   -3-    -4-    -3-    -8-    -6-    -6-    -8-    -5-    -3-    -3- 
-3-   -5-    -6-    -3-    -8-    -8-    -7-    -7-    -6-    -3-    -3- 
-5-   -4-    -5-    -2-    -8-    -7-    -7-    -8-    -5-    -4-    -3- 
-5-   -5-    -6-    ---    -10    -8-    ---    -6-    -7-    -5-    -5- 
-3-   ---    ---    -3-    -8-    ---    -6-    ---    -5-    -3-    -3- 

roll up this ad to continue

share this page

See Also: