E-Chords
Zilo e zalo

Aurora Do Mundo(Chords)

Zilo e zalo

Key: G
G                                                         C 
E|-7---7---8---10---10---10---7---8---10---12---12---12--------| 
B|-8---8--10--12---12---12---8--10---12---13---13---13---------| 
G|-------------------------------------------------------------| 
D|-------------------------------------------------------------| 
A|-------------------------------------------------------------| 
E|-------------------------------------------------------------| 
    
                            D                                         G 
E|--8---10---12---14---14---14---12---10---8---7---------------| 
B|-10--12---13---15---15---15---13---12---10---8---------------| 
G|-------------------------------------------------------------| 
D|-------------------------------------------------------------| 
A|-------------------------------------------------------------| 
E|-------------------------------------------------------------| 
G C Quem teve os amores que tive na vida D G É gente entendida na mágoa e na dor D E sabe por certo que um doce carinho C G Às vezes é espinho em forma de flor F Bb Estando sofrendo aqui na cidade G7 C A louca saudade de um certo amor A D Busquei o remédio pra mente saudosa D7 G Na vida gostosa do interior
     G                                                         C 
E|-7---7---8---10---10---10---7---8---10---12---12---12---------| 
B|-8---8--10--12---12---12---8--10---12---13---13---13----------| 
G|--------------------------------------------------------------| 
D|--------------------------------------------------------------| 
A|--------------------------------------------------------------| 
E|--------------------------------------------------------------| 
    
                            D                                         G 
E|--8---10---12---14---14---14---12---10---8---7----------------| 
B|-10--12---13---15---15---15---13---12---10---8----------------| 
G|--------------------------------------------------------------| 
D|--------------------------------------------------------------| 
A|--------------------------------------------------------------| 
E|--------------------------------------------------------------| 
G C Cruzei os cerrados, chapadas e serras D G Pro lado das terras de Minas Gerais D Vi campos floridos e belos cenários C G E ouvi os canários nos macaubais F Bb Fumaça distante no azul do horizonte G7 C Na encosta dos montes, formando espirais A D Vi tudo que amo na tranquilidade D7 G Mas minha saudade ainda era mais
     G                                                         C 
E|-7---7---8---10---10---10---7---8---10---12---12---12--------| 
B|-8---8--10--12---12---12---8--10---12---13---13---13---------| 
G|-------------------------------------------------------------| 
D|-------------------------------------------------------------| 
A|-------------------------------------------------------------| 
E|-------------------------------------------------------------| 
    
                            D                                         G 
E|--8---10---12---14---14---14---12---10---8---7---------------| 
B|-10--12---13---15---15---15---13---12---10---8---------------| 
G|-------------------------------------------------------------| 
D|-------------------------------------------------------------| 
A|-------------------------------------------------------------| 
E|-------------------------------------------------------------| 
G C Passei uma noite no Rancho Amizade D G E vi na saudade o começo do fim D A chuva caía naquele tugurio C G Num triste murmúrio por sobre o capim F Bb A noite avançava e eu não dormia G7 C Agora sabia que amar era assim A D Por fim entreguei-me ao sono profundo D7 G E a aurora do mundo caiu sobre mim
     G                                                         C 
E|-7---7---8---10---10---10---7---8---10---12---12---12------| 
B|-8---8--10--12---12---12---8--10---12---13---13---13-------| 
G|-----------------------------------------------------------| 
D|-----------------------------------------------------------| 
A|-----------------------------------------------------------| 
E|-----------------------------------------------------------| 
    
                            D                                         G 
E|--8---10---12---14---14---14---12---10---8---7-------------| 
B|-10--12---13---15---15---15---13---12---10---8-------------| 
G|-----------------------------------------------------------| 
D|-----------------------------------------------------------| 
A|-----------------------------------------------------------| 
E|-----------------------------------------------------------| 
G C Voltei pra cidade, fiquei na agonia D G Até que um dia meu bem encontrei D Beijei a menina com todo carinho C G E aquele rostinho acariciei F Bb Cantando seguiu-me na linha da vida G7 G Na estrada florida que eu lhe mostrei A D Porque ela sabe que agora é só minha D7 G É minha rainha e eu sou o seu rei

roll up this ad to continue

share this page

See Also: