E-Chords
Zack Mexico

Suzuki(Chords)

Zack Mexico

Key: F#
Intro 

e|-------------------------------------------------------------| 
B|----------5-4--------------------------5-4-------------------| 
G|-----4-2--------4-2---4----------4-2--------4-2---4/8--------| 
D|-------------------------4-----------------------------------| 
A|-------------------------------------------------------------| 
E|-------------------------------------------------------------| 

e|---------4-3-------------------------4-3---------------------| 
B|---4-2---------4-2---4---------4-2--------4-2-4/7------------| 
G|-----------------------3-------------------------------------| 
D|-------------------------------------------------------------| 
A|-------------------------------------------------------------| 
E|-------------------------------------------------------------| 
verse 1 In my heart In my head I'm not there I am here See my base Could use a raise Just to fight At the floods
F# You know I F#7 I Bb I don't wanna fall in love Bb7 Baby not again
(Intro again) verse 2 See my hair Is falling out Watch it run Down the drain With a twist And a spin They exist In my brain
F# Oh yeah I F#7 I Bb I don't wanna fall in love Bb7 Baby not again
Outro 
Guitar1 
e|-------------------------------------------------| 
B|-------2--4--6-4-2--4--6-4-2--4--6-2-4-----------| 
G|-------------------------------------------------|Repeat until the end 
D|-------------------------------------------------| 
A|-------------------------------------------------| 
E|-------------------------------------------------| 

Guitar2 
e|-------------7-9-12-9-7--------------------------| 
B|-------5-7-9-----------9-7-5--7-9-5--------------| 
G|-------------------------------------------------|Solo 1 
D|-------------------------------------------------| 
A|-------------------------------------------------| 
E|-------------------------------------------------| 

Guitar2 
e|----------------------------------------------------------------------------------------------| 
B|---------5-5-5-5-5-5-5--3-3-3-3-3-3-----------------------------------------------------------| 
G|------------------------------------4-4-4-4-4-4-4--1-1-1-1-1-1-1------------------------------| 
D|------------------------------------------------------------------2-2-2-2-2-2-2--0-0-0-0-0-0--| 
A|----------------------------------------------------------------------------------------------| 
E|----------------------------------------------------------------------------------------------| 

e|---------------------------------------------------------------------------| 
B|---------------------------------------------------------------------------| 
G|---------------------------------------------------------------------------|solo 2 
D|---------------------------------------------------------------------------| 
A|----2-2-2-2-2-2-2-2-2------------------------------------------------------| 
E|-----------------------4-4-4-4-4-4-4-4-4-4-4-------------------------------|

roll up this ad to continue

share this page

See Also: