E-Chords
Zac Chandler

Don't Give In(Chords)

Zac Chandler

roll up this ad to continue

Key: G
Capo on 2nd fret
 

Intro, Verses, and Chorus 
G                  G*                 Am                           C 
e|x---------------|--x---------------|---x------------------|--x---------------| 
B|--3---3------3--|----3---3---------|----1------1----0h1---|----1------1-----1| 
G|---0---0--------|-----2---2--0h2p0-|-----2------2--0h2----|-----0------0-----| 
D|----0-----------|------0-----------|------2--------0h2----|------2------0h2--| 
A|---------0h2----|--x---------------|--0-------------------|--3-----3---------| 
E|3---------------|--2---------------|--x-------------------|--x---------------| 

Outro 
D                     G5                            A      F 
e|-------2--------------2--------|------------5-----------------5-------|-x-------------|---------1---| 
B|--3------3---3----3-----3---3--|-----3---3----3---3----3---3----3---3-|---2----2----2-|---1---------| 
G|---2-------2-------2------2----|-------0--------0--------0--------0---|-----2----2----|-----2-------| 
D|0---0----------0----0----------|--x-----------------------------------|-x-------------|-------3-----| 
A|x------------------------------|--x-----------------------------------|-0----0----0---|-3-----------| 
E|x------------------------------|--3-----------------3-----------------|-x-------------|-x-----------|
verse 1 G G* Am C When it seems life can?t get any worse G G* Am C And you feel your heart can?t go on, G G* Am C Give it one last try then maybe G G* Am C We can make this work somehow. verse 2 G G* Am C Can?t go on too much longer like this, G G* Am C Got to find a way out soon. G G* Am C There will be a day when maybe G G* Am C You forgive all the things I?ve done.
G G* Am C Please give me one more try G G* Am C You?ve got to fight and not give in G G* Am C We can run in circles forever G G* Am C But that won?t make this madness end
So verse 3 G G* Am C I give my whole life and being G G* Am C To apologize and atone G G* Am C I know I?m far from perfect G G* Am C But I swear that?s just who I am
G G* Am C Please give me one more try G G* Am C You?ve got to fight and not give in G G* Am C We can run in circles forever G G* Am C But that won?t make this madness end
Oh Outro D G5 A F - Strum
share this page

See Also: