E-Chords
Xutos & Pontapés

Negras Como A Noite(Chords)

Xutos & Pontapés

roll up this ad to continue

Key: G
  Bm                        G 
E|--------------------------3-----------3-----------| 
B|-2-----------2--------------5-------5---5-------5-| 
G|---4-------4---4-------4------5---5-------5---5---| 
D|-----4---4-------4---4----------4-----------4-----| 
A|-------3-----------3------------------------------| 
E|--------------------------------------------------|
   E 
E|-0-----------0------------------------------------| 
B|---2-------2---2-------2--------------------------| 
G|-----2---2-------2---2----------------------------| 
D|-------1-----------1------------------------------| 
A|--------------------------------------------------| 
E|--------------------------------------------------|
Bm G Com mãos de veludo E G Negras como a Noite Bm G Tu deste-me tudo E G E eu parti ( Bm G E G ) ( Bm G E G ) Bm G Um homem trabalha E G Do outro lado do rio Bm G Com as suas duas mãos E G Repara um navio Bm G Está sozinho e triste E G Mas tem que aguentar Bm G Já falta tão pouco E G Para poder Voltar D Vai ficar tudo Bem A Isso eu sei D Vai ficar tudo Bem A Isso eu sei Bm C G Quando o Sol se juntar ao mar Bm C G E eu te voltar a beijar E G Só mais uma vez E G Só mais uma vez E Só mais uma G Só mais esta vez ( Bm G E G ) Um adeus começa Outro dia igual Ficou a promessa Escondida no lençol Negras como a noite Vindas de outra terra As mãos de veludo Estão à sua espera D Vai ficar tudo Bem A Isso eu sei D Vai ficar tudo Bem A Isso eu sei Bm C G Quando o Sol se juntar ao mar Bm C G E eu te voltar a beijar E G Só mais uma vez E G Só mais uma vez E Só mais uma G Só mais esta vez
share this page

See Also: