E-Chords
Wrinkle Neck Mules

Gold Dust Twin(Chords)

Wrinkle Neck Mules

roll up this ad to continue

Key: D
    1 e & a 2 e & a 3 e & a 4 e & a 
e|--2---2---x---x-2---x-2---2-3----------------------------------------------| 
B|--3---3---x---x-3---x-3---3-3----------------------------------------------| 
G|--2---2---x---x-2---x-2---2-2----------------------------------------------| 
D|--0---0---x---x-0---x-0---0-0----------------------------------------------| 
A|---------------------------------------------------------------------------| 
E|---------------------------------------------------------------------------| 
Intro: D Dsus4 Verse: D Dsus4 D Dsus4 Salt in your bed D Dsus4 D Dsus4 A G I'm so tired of being in this bedroom D Dsus4 D Dsus4 With you D Dsus4 D Dsus4 Flakes of livelihood D Dsus4 D Dsus4 A G You embody everything that's not good D Oh it's you Dsus4 D
A G Wilted flowers, eleventh hour A D Beaten down by your superpowers A G D Here we are again gold dust twin
verse 2: D Dsus4 D Dsus4 Salt in your bed, D Dsus4 D Dsus4 A G I'm so tired of listenin' to what you said D Dsus4 D Dsus4 In my head D Dsus4 D Dsus4 Flakes of livelihood D Dsus4 D Dsus4 A G You spoke up just like I knew you would D Dsus4 It's you D Dsus4 Chorus 2: A G Melted wires, amplifiers A D Count your blessings and toss 'em on the fire A G D This is the end gold dust twin Dsus4 D (x9) Solo:
e|--2-2--------5------------5------------------5----------5----------5-------| 
B|--3-3----5b7---5-3~---5b7---5-3---3------5b7---5-3--5b7---5-3--5b7---5-3---| 
G|--2-2---------------------------4------------------------------------------| 
D|--0-0----------------------------------------------------------------------| 
A|--0-0----------------------------------------------------------------------| 
E|---------------------------------------------------------------------------| 

e|-----------------------------5-5--5--5--5--5--5--5--5--5--5----------------| 
B|----------3-----3-----3---5b7-(7)(7)(7)(7)(7)(7)(7)(7)(7)(7)7r5p3---3~------| 
G|-4-2--2h4---2h4---2h4---4-----------------------------------------4--------| 
D|---------------------------------------------------------------------------| 
A|---------------------------------------------------------------------------| 
E|---------------------------------------------------------------------------| 

e|------5----------5-5--5--5--5--5--5--5--5--5--5----------------------------| 
B|--5b7---5-3--5b7--(7)(7)(7)(7)(7)(7)(7)(7)(7)(7)7r5p3----------------------| 
G|------------------------------------------------------4--------------------| 
D|---------------------------------------------------------------------------| 
A|---------------------------------------------------------------------------| 
E|---------------------------------------------------------------------------| 
(Repeat Chorus 2) End D
share this page

See Also: