E-Chords
Wilson Fonseca

Um Poema De Amor(Chords)

Wilson Fonseca

roll up this ad to continue

Key: F
Intro Dm   C  A7   Dm  

D|-----------------------------0------------------| 
A|---0--------------------------------------------| 
E|-----------3---1---0----------------------------|
Dm Dm/C Bb/G C7/9 F A7 E quando a noite desceu, Dm Dm/C Bb O poeta escreveu Gm A7 Sua história de amor!
D|----------------------------0---------------------| 
A|---1---0------------------------------------------| 
E|-------------3---1---0----------------------------|
Dm Dm/C Bb/G C7/9 F A7 Tinha a grandeza do Mar, Dm Dm/C Bb7 O esplendor do Luar A7 Dm E a beleza da Flor!
D|----0---2---4-----------------------------------------| 
A|---------------------------------------------------| 
E|-------------------3---------------------------------|
Gm (Gm Gm F) Era o romance uma linda canção E7 E/G# A7 Nascida do coração!
D|----------------------------0---------------------| 
A|---1---0------------------------------------------| 
E|-------------3---1---0----------------------------|
Dm Dm/C Bb/G C7/9 F A7 Hoje, o Poeta-Cantor Dm Dm/C Bb7 Nada mais tem se não A7 Dm Que um poema de amor! Dm Dm/C Bb A7 Dm Um poema de amor, de amor!
share this page

See Also: