E-Chords
Wig Wam

Freddy Are You Ready(Chords)

Wig Wam

roll up this ad to continue

Key: A
(w Riff A) 
E  F#m7  G#m7  E   E  F#m7  G#m7  E 


           A    Bm7  C#m7              A    Bm7  C#m7 
Taking me home to my loved one's side, home, oh yeah 
    D    D7  E7            D     D7      E7   
And do I ever need her, and do I ever need her  

Dm9    Dm7 C   Dm6 B   E7   Esus   
lovin' Do I need it, yes indeed 

(w Riff B) 
Dsus  D  C  C B  Am  Am7  F7/5-  

  Bm7 D          B         A               B                           
  Oh, I got a problem, think I know what's wrong 
 Bm7 D          B         A        B   A   F# 
  I think I picked it up in old Finnspång 
  F#m7 A       F#                E         F# 
  You take a slice or two, it'll make you sigh 
  F#m7 A       F#             E       D 
  And just a second while I kiss this guy 

                   
  Inhibition, well, you can fly 
  Out the window to the clear blue sky 
  It will mess your suit, it will make you cry 
  It doesn't matter, give me Mumdane pie 

    G                  Em       A    F#m7 
    None of my friends treat me mean 
    G                  Em     A          F#m7 
    Hoping you know to change that scene 

(w Riff A) 
E F#m7 G#m7 E                      E F#m7 G#m7 E 
             Freddie are you ready 


Taking me home to my loved... 

  Oh, I got a problem and I don't know why 
  I think I picked it up in old Shanghai 
  You take a slice or two, it'll make you sigh 
  And just a minute while I kiss this guy 

  Inhibition, well, you can... 

    I know that I treat my friends so mean 
    Hoping you know to change that scene 


INTERLUDE:(guitar keyboards) (w Riff C) 


  Oh, I got a problem and I don't know why 
  I think I picked it up in old Shanghai 
  You take a slice or two, it'll make you sigh 
  And just a second while I slapp this guy 

  Inhibition, well, you can... 

    None of my friends... 

      Freddie are you ready 

Taking me home to my... 

D     D7      E7 
Do I ever need her 
D     D7      E7 
Do I ever need her  
Dm6/9  Aadd9 
loving 


*(Riff A) 

     E       F#m   G#m      E           E      F#m   G#m     E 
||----------------------------------------------------7------4-----------|| 
||--------------------------------------5-------7------------------------|| 
||------------------4-------1--------------------------------------------|| 
||----2-------4----------------------------------------------------------|| 
||-----------------------------------------------------------------------|| 
||-----------------------------------------------------------------------|| 


**(Riff B) 

   Dsus      D      C    C B   Am   Am7 G   F7/5-  
||-------------------------------------------------0-------------0--------|| 
||-----------------------------------------------0----0--------0----0-----|| 
||---------------------------------------------2--------2----2--------2)--|| 
||---2--1----0------------------------------(3------------3---------------|| 
||------------------3-----2-----0-----------------------------------------|| 
||-------------------------------------3-----1----------------------------|| 


INTERLUDE ***(Riff C) 

    A7                                             E7 
||---------------------------------------------------------------------|| 
||---------------------------------------------------------------------|| 
||.-1----------------4----1-------------------4-----------------------.|| 
||.----------2---4-------------------2---4----------1-----------------.|| 
||---------------------------------------------------------------------|| 
||---------------------------------------------------------------------|| 


     A7                                        Am9 
||-----------------14---------------------------------------------19-----|| 
||------------12------------------12--------------------------17---------|| 
||---13---14--------------13---14-------------------14---17--------------|| 
||-------------------------------------13------14------------------------|| 
||-----------------------------------------------------------------------|| 
||-----------------------------------------------------------------------||
share this page

See Also: