E-Chords
WhiteSnake

Love Ain't no Stranger(Chords)

WhiteSnake

roll up this ad to continue

Watch the video lesson
Key: D/F#
   

Introdução:   


e|--------------------------------------------------------------|   
B|---------------------3----------------------2-----------------|   
G|---------2--------2-----------2----------2--------------------|   
D|------4--------0-----------2--------2h4-----------------------|   
A|------------------------0--------2----------------------------|   
E|---2--------3-------------------------------------------------|   



e|--------------------------------------------------------------|   
B|---------------------3----------------------2-----------------|   
G|---------2--------2-----------2----------2--------------------|   
D|------4--------0-----------2--------2h4-----------------------|   
A|------------------------0--------2----------------------------|   
E|---2--------3-------------------------------------------------|   



e|--------------------------------------------------------------|   
B|---------------------3----------------------2-----------------|   
G|---------2--------2-----------2----------2--------------------|   
D|------4--------0-----------2--------2h4-----------------------|   
A|------------------------0--------2----------------------------|   
E|---2--------3-------------------------------------------------|   



e|------------------------------------------------0------0------|   
B|---------------------3----------------------2---0------2------|   
G|---------2--------2-----------2----------2------0------2------|   
D|------4--------0-----------2--------2h4---------2------2------|   
A|------------------------0--------2--------------2------0------|   
E|---2--------3-----------------------------------0-------------|   



verso e refrão:   



e|--------------------------------------------------------------|   
B|--------------------------------------------------------------|   
G|--------4--2--4-------4--2--4-------4--2--4-------------------|   
D|-/-XXX--4--2--4--XXX--4--2--4--XXX--4--2--4------2------------|   
A|-/-----------------------------------------------0----2-------|   
E|-/----------------------------------------------------0-------|   



e|--------------------------------------------------------------|   
B|-------------------------3------------------------------------|   
G|------4-2-4----4-2-4-----2-----4-2-4----4-2-4-----4-2-4-------|   
D|-/-XX-4-2-4-XX-4-2-4-----0--XX-4-2-4-XX-4-2-4-XX--4-2-4-------|   
A|-/--------------------2---------------------------------------|   
E|-/--------------------0---------------------------------------|   



e|--------------------------------------------------------------|   
B|------3-------------------------------------------------------|   
G|------2-----4-2-4---------------------------------------------|   
D|------0--XX-4-2-4-------------7---------------7-XX-7----------|   
A|---2--------------/--5-5-5-5--5---7--5-5-5-5--5-XX-5---7--7---|   
E|---0--------------/--3-3-3-3------5--3-3-3-3-----------5--5---|   




e|--------------------------------------------------------------|   
B|--------------------------------------------------------------|   
G|--------------------------------------------------------------|   
D|--------------7---------------------7-XX-7--------------------|   
A|---5-5-5-5----5--XX-7----5-5-5-5----5-XX-5-----7--7-----------|   
E|---3-3-3-3-------XX-5----3-3-3-3---------------5--5-----------|   




e|--------------------------------------------------------------|   
B|--------------------------------------------------------------|   
G|----4--2--4------4--2--4-------4--2--4------------------------|   
D|-XX-4--2--4---XX-4--2--4----XX-4--2--4------2-----------------|   
A|--------------------------------------------0----2------------|   
E|-------------------------------------------------0------------|   



SOLO:   


e|--------------------------------------------------------------|   
B|--------------------------------------------------------------|   
G|---2b4--4--6\7/6--4\2---4-4------9b11--t14---9--7--9----------|   
D|--------------------------------------------------------------|   
A|--------------------------------------------------------------|   
E|--------------------------------------------------------------|   




e|--------------------------------------------------------------|   
B|--------------------------------------------------------------|   
G|---7-6---------------------------------------4----------------|   
D|-------7-9-7------------------------------4------7------------|   
A|-------------9-7-5-7--5-4--------4--5--7----------------------|   
E|--------------------------7-----------------------------------|   






e|-----------------------------------------------------12b14-12-|   
B|------------------7---7------10--12--12b15---10--12-----------|   
G|------7--9--7--9----9---\11-----------------------------------|   
D|---9----------------------------------------------------------|   
A|--------------------------------------------------------------|   
E|--------------------------------------------------------------|   






e|---12--12-----------------------------------------------------|   
B|-----------12~-------15--17--17b19--17b19r17--15\14-----------|   
G|----------------\16-------------------------------------------|   
D|--------------------------------------------------------------|   
A|--------------------------------------------------------------|   
E|--------------------------------------------------------------|   




e|---19b21r19--17------17---------------------------------------|   
B|-----------------19------19b21r-------------------------------|   
G|--------------------------------------------------------------|   
D|--------------------------------------------------------------|   
A|--------------------------------------------------------------|   
E|--------------------------------------------------------------|   


Interludio:   



e|--------------------------------------------------------------|   
B|--------------------------------------------------------------|   
G|----4--2--4-----4----4--2--4-----4----4--2--4-----------------|   
D|-\--4--2--4--XX-4----4--2--4--XX-4----4--2--4---2-------------|   
A|-\----------------------------------------------0---2---------|   
E|----------------------------------------------------0---------|   




e|--------------------------------------------------------------|   
B|--------------------------------------------------------------|   
G|---4--2--4-----4----4--2--4-----4----4--2--4-------9--7--9----|   
D|---4--2--4--XX-4----4--2--4--XX-4----4--2--4---2---9--7--9----|   
A|-----------------------------------------------0--------------|   
E|--------------------------------------------------------------|   



FINAL   


e|--------------------------------------------------------------|   
B|--------------3---------------3--2----------3----------------2|   
G|-----2------2-------2-------2------------2--------2-------2---|   
D|---4------0-------2------2h4-----------0--------2-----2h4-----|   
A|----------------0------2----------------------0-----2---------|   
E|-2------3-------------------------2--3------------------------|   




e|--------------------------------------------------------------|   
B|--------------3----------------3--2---------------------------|   
G|-----2------2-------2--------2--------2--2--------------------|   
D|---4------0-------2------2h4----------4--0---2-2--4-4---------|   
A|----------------0------2---------------------0-0--2-2---------|   
E|-2------3-----------------------------2--3--------------------|   

Introdução: D/F# G A Bm (2x) D/F# G9 A Bm7 Who knows where the cold wind blows, D/F# G9 A Bm7 I ask my friends, but, nobody knows. D/F# G9 A Bm7 Who am I to believe in love, Em A D/F# G9 A Bm (2x) Oh, oh, oh. love ain't no stranger. D/F# G9 A Bm7 I looked around an' what did I see D/F# G9 A Bm7 Broken hearted people staring at me, D/F# G9 A Bm7 All searching 'cos they still believe, Em A Oh, oh, Oh, love ain't no stranger. Bm7 A (3x) A Em (Bm A Bm) (Bm A Bm) I was alone an' I needed love Em D (Bm A Bm) So much I sacrificed all I was dreaming of, (Bm A Bm) (Bm A Bm) I heard no warning, but, a heart can tell Em D (Bm A Bm) I'd feel the emptiness of love I know so well. G D A Love ain't no stranger, G D A I ain't no stranger. G D A Love ain't no stranger, G D A I ain't no stranger to love. (Bm A Bm) (3x) A Em (Bm A Bm) (Bm A Bm) Can't hold the passion of a soul in need, Em A (Bm A Bm) I look for mercy when my heart begins to bleed. (Bm A Bm) (Bm A Bm) I know good loving an' I'm a friend of pain, Em A (Bm A Bm) But, when I read between the lines it's all the same. G D A Love ain't no stranger, G D A I ain't no stranger to love. G D A Love ain't no stranger, G D A I ain't no stranger to love. Solo: D/F# G A Bm7 (5x) D/F# G A D/F# G9 A Bm7 So who knows where the cold wind blows, D/F# G9 A Bm7 I ask my friends, but, nobody knows. D/F# G9 A Bm7 Em A Who am I to believe in love, Em A Lord, have mercy, (Bm A Bm Bm) A Em Love ain't no stranger, (Bm A Bm Bm) 3x (Em D Em) I ain't no stranger. (Bm A Bm) (Bm A Bm) I was alone an' I needed love Em A (Bm A Bm) So much I sacrificed all I was dreaming of, (Bm A Bm) (Bm A Bm) Can't hold the passion of a soul in need, Em A (Bm A Bm) I look for mercy when my heart begins to bleed. G D A Love ain't no stranger, G D A I ain't no stranger to love. G D A Love ain't no stranger, G D A I ain't no stranger to love. Final: D/F# G9 A Bm (4x)
share this page

See Also: