E-Chords
Weeping Willows

Into The Light(Chords)

Weeping Willows

roll up this ad to continue

Key: Dm
Intro: 
  
 Dm                     Dm 
|----------------------|----------------------| 
|----------------------|----------------------| 
|---------------5------|---------------5------| 
|---------5h7------7---|---------5h7------7---| 
|-5-5-5----------------|-5-5-5----------------| 
|----------------------|----------------------| 
  
 Bb                     F 
|----------------------|---------8---------| 
|----------------------|-6-6-8-----8-6-----| 
|---------------5------|-------------------| 
|---------5h7------7---|-------------------|  X2  
|----------------------|-------------------| 
|-6-6-6----------------|-------------------| 
Verse: Dm Stockholm in dry white snow Bb Lights are low F |Dm |F | |Bb |F | Cars drive by real slow In the cold Dm Strangers are passing by Bb And sometimes I F Dm See right through their minds F |Bbm |F | Bb Am Dm But they will never know I'm waiting for her on a corner, my chest is full of hope Bb A7 A Songs about her playing on my Walkman radio Ref: Dm E When she comes by Am Dm She'll bring the warmth and melt the ice Dm E Asus Asusadd-2 Asusadd2 Asusadd-2 Then we will fly into the light Dm E She makes me smile Am Dm Diamond flakes fall through the sky Bb Asus Asusadd-2 Asusadd2 Asusadd-2 Then we will fly into the light Intro riff x2 Verse: Dm Life is all frozen here Bb But I don't care F Dm |F | |Bb |F | Cause I will disappear Into her smile Dm People are passing by Bb With staring eyes F Dm I know what's on their minds F |Bbm |F | Bb Am Dm It scares me deep inside I'm waiting for her on a corner, my chest is full of hope Bb A7 A Songs about her playing on my Walkman radio Ref: Dm E When she comes by Am Dm She'll bring the warmth and melt the ice Dm E Asus Asusadd-2 Asusadd2 Asusadd-2 Then we will fly into the light Dm E She makes me smile Am Dm Diamond flakes fall through the sky Bb Asus Asusadd-2 Asusadd2 Asusadd-2 Then we will fly into the light Outro: Intro riff x3
share this page

See Also: