E-Chords
Weeping Willows

Heart Of Hearts(Chords)

Weeping Willows

roll up this ad to continue

Key: E
Intro:   

               
|-----------------|-----------------|-----------------|------------------| 
|-------------0-0-|-------------0-0-|-------------0-0-|------------------| 
|-1-1-1-2-2-2-1-1-|-1-1-1-2-2-2-1-1-|-1-1-1-2-2-2-1-1-|-2-2-2-2-2-2-2-2--| 
|-2-2-2-2-2-2-2-2-|-2-2-2-2-2-2-2-2-|-2-2-2-2-2-2-2-2-|-2-2-2-2-2-2-2-2--| x2   
|-2-2-2-2-2-2-2-2-|-0-0-0-0-0-0-0-0-|-2-2-2-2-2-2-2-2-|-0-0-0-0-0-0-0-0--| 
|-0-0-0-0-0-0-0-0-|-0-0-0-0-0-0-0-0-|-0-0-0-0-0-0-0-0-|-0-0-0-0-0-0-0-0--| 
Vers 
E F#m When I sing about love G#m A I sing about you E F#m G#m A You make a grey day colorful E F#m And when I sing about life G#m A I sing about you E F#m A You help me find it meaningful. Ref: E A Its deeper than oceans E A Deeper than oceans G#m A My feelings for you G#m In my heart of hearts A I belong to you.
|-----------------|-----------------|-----------------|------------------| 
|-------------0-0-|-------------0-0-|-------------0-0-|------------------| 
|-1-1-1-2-2-2-1-1-|-1-1-1-2-2-2-1-1-|-1-1-1-2-2-2-1-1-|-2-2-2-2-2-2-2-2--| 
|-2-2-2-2-2-2-2-2-|-2-2-2-2-2-2-2-2-|-2-2-2-2-2-2-2-2-|-2-2-2-2-2-2-2-2--|    
|-2-2-2-2-2-2-2-2-|-0-0-0-0-0-0-0-0-|-2-2-2-2-2-2-2-2-|-0-0-0-0-0-0-0-0--| 
|-0-0-0-0-0-0-0-0-|-0-0-0-0-0-0-0-0-|-0-0-0-0-0-0-0-0-|-0-0-0-0-0-0-0-0--| 
Verse: E F#m I don't miss my old friends G#m A And our charades E F#m G#m A I don't pretend when Im with you E F#m G#m You made me drop my guard A You made me sing E F#m A That's why my heart belongs to you.
E A Its deeper than oceans E A Deeper than oceans G#m A My feelings for you G#m In my heart of hearts A I belong to you.
|-----------------|-----------------|-----------------|------------------| 
|-------------0-0-|-------------0-0-|-------------0-0-|------------------| 
|-1-1-1-2-2-2-1-1-|-1-1-1-2-2-2-1-1-|-1-1-1-2-2-2-1-1-|-2-2-2-2-2-2-2-2--| 
|-2-2-2-2-2-2-2-2-|-2-2-2-2-2-2-2-2-|-2-2-2-2-2-2-2-2-|-2-2-2-2-2-2-2-2--|   x2 
|-2-2-2-2-2-2-2-2-|-0-0-0-0-0-0-0-0-|-2-2-2-2-2-2-2-2-|-0-0-0-0-0-0-0-0--| 
|-0-0-0-0-0-0-0-0-|-0-0-0-0-0-0-0-0-|-0-0-0-0-0-0-0-0-|-0-0-0-0-0-0-0-0--| 
Solo: C#m E F#m A Ref: E A Its deeper than oceans E A Deeper than oceans G#m A My feelings for you G#m A In my heart of hearts I belong to you. x2
Outro: 

  
|-----------------|-----------------|-----------------|------------------| 
|-------------0-0-|-------------0-0-|-------------0-0-|------------------| 
|-1-1-1-2-2-2-1-1-|-1-1-1-2-2-2-1-1-|-1-1-1-2-2-2-1-1-|-2-2-2-2-2-2-2-2--| 
|-2-2-2-2-2-2-2-2-|-2-2-2-2-2-2-2-2-|-2-2-2-2-2-2-2-2-|-2-2-2-2-2-2-2-2--| x2  
|-2-2-2-2-2-2-2-2-|-0-0-0-0-0-0-0-0-|-2-2-2-2-2-2-2-2-|-0-0-0-0-0-0-0-0--| 
|-0-0-0-0-0-0-0-0-|-0-0-0-0-0-0-0-0-|-0-0-0-0-0-0-0-0-|-0-0-0-0-0-0-0-0--|
share this page

See Also: