E-Chords
Weeping Willows

Falling(Chords)

Weeping Willows

roll up this ad to continue

Key: Em
Intro: |Em|G|C|Em| (3x) 

Verse: 

Em                             G 
It seems like we've run out of words of praise 
                C              Em 
There's nothing left for us to say 
                           G 
In the beginning there was lust but now 
    C                Em 
The thrill has gone away 
                           G 
You had my heart and now I want it back 
      C                 Em 
We're nothing more than friends 
                         G 
And when I take a closer look at us 
             C                   Em 
I know we're heading towards the end 

 
Em G C Em Falling, Falling, Falling out of love Em G C Em Falling, Falling, Falling out of love
Verse: Em G I wanna hold you but my arms are numb C Em The words stay on the tongue G It seems like we are getting ready for the C Em Day we know must come G We watch each other with the saddest eyes C Em Waiting for a look G The simple things in life are difficult but C Em Still we have to choose
Em G C Em Falling, Falling, Falling out of love Em G C Em Falling, Falling, Falling out of love (we're falling out of love) Em G C Em Falling, Falling, Falling out of love (we're falling out of love) Em G C Em Falling, Falling, Falling out of love
Solo:  

    Em                     G 
||-----------------------|----------------------| 
||o----10-8-10-10-8------|----10-8-10-10-8------| 
||------------------9----|-----------------9----| 
||-----------------------|----------------------| 
||o----------------------|----------------------| 
||-----------------------|----------------------| 


  C                      Em  
|----------------------|----------------------|| 
|----10-8-10-10-8------|----10-8-10-10-8-----o|| 
|-----------------9----|-----------------9----|| 
|----------------------|----------------------|| 
|----------------------|---------------------o||   x2  second time with aaaao (4 times in total) 
|----------------------|----------------------|| 
Em G C Em Falling, Falling, Falling out of love (we're falling out of love) Em G C Em Falling, Falling, Falling out of love (we're falling out of love) Em G C Em Falling, Falling, Falling out of love (we're falling out of love) Em G C Em Falling, Falling, Falling out of love (we're falling out of love)
 Em                     G 
 |-----------------------|----------------------| 
 |-----10-8-10-10-8------|----10-8-10-10-8------| 
 |------------------9----|-----------------9----| 
 |-----------------------|----------------------| 
 |-----------------------|----------------------| 
 |-----------------------|----------------------| 
we're falling out of love, we're falling out of love 
   
  C                      Em  
 |----------------------|----------------------| 
 |----10-8-10-10-8------|----10-8-10-10-8------| 
 |-----------------9----|-----------------9----| 
 |----------------------|----------------------| 
 |----------------------|----------------------|    x3 
 |----------------------|----------------------| 
we're falling out of love, we're falling out of love 

Outro: 

    
|-^0-----2-----|-^3----------|-^2----0----|-----------| 
|-^0--------0--|-^0-----3----|-^0---------|-^0--------| 
|-^0--0--------|-^0--0-------|-^0---------|-^0--------| 
|-^2-----------|-^0----------|-^0---------|-^2--------| 
|--------------|-------------|------------|-^2--------| 
|--------------|-------------|------------|-----------| 



|-^0-----2-----|-^3----------|-^2----0----|-------| 
|-^0--------0--|-^0-----3----|-^0---------|-^0----| 
|-^0--0--------|-^0--0-------|-^0---------|-^0----| 
|-^2-----------|-^0----------|-^0---------|-^2----| 
|--------------|-------------|------------|-^2----| 
|--------------|-------------|------------|-------|
share this page

See Also: