E-Chords
Warfaze

Purnota(Chords)

Warfaze

Key: G
Intro: 

E------------0-------------------0------------| 
B---------0----0-------------0-----0----------| 
G------8----------8-------8-----------8-------| 
D---6-------------------6---------------------| 
A-7-------------------9-----------------------| 
E---------------------------------------------|(X2) 

Solo' 
E-----------------------------------------------------------| 
B-----------------------------------------------------------| 
G-s6--6--8--9--8--6---4------4----4h6-----------------------| 
D----------------------------6----6-------6-4-2-4-4s6-4-----| 
A-----------------------------------------------------------| 
E-----------------------------------------------------------| 

E-------------9-10-12-12s14-----| 
B-------7--5--------------------| 
G-4--6--------------------------| 
D-------------------------------| 
A-------------------------------| 
E-------------------------------| 

E-11h12p11--12s14--14s16--16-14-12---------------------------| 
B--------------------------------------- 16-14-12------------| 
G---------------------------------------------------14-12----| 
D------------------------------------------------------------| 
A------------------------------------------------------------| 
E------------------------------------------------------------| 
verse 1 
E--------0-------------0-----------------0------------0--------| 
B------0---0---------0--0-------------0---0--------0---0-------| 
G----8-------8-----8------8---------8------ 8-----8------8-----| 
D--6-------------6-------------- --6-------------6-------------| 
A-7------------9------- ----(X2)-4-------------7---------------| 
E--------------------------------------------------------------| 

E------------0----------------0-------------| 
B---------0----0------------0---0-----------| 
G------6---------6-------8--------8---------| 
D---7------------------9--------------------| 
A-7------------------9----------------------| 
E-------------------------------------------|(Play full of verse 2 time) 


Pre-Chorus(Jontre badha mon......) 
E--------0---------------0-----------------0-------------0-------------| 
B------0---0-----------0---0------------ 0--0---------0---0------------| 
G----6---- --6------ -6------6---------8------8------8------0----------| 
D--7-----------7---7----------7-----9----------9-- 9----------0--------| 
A-7--------------7----------------9---------------9--------------0-----| 
E----------------------------------------------------------------------| 
These chord will be shown as some symbol Sym:1---------------2--------3- E0 E0 E0 B0 B0 B0 G8 G6 G8 D6 D7 D9 A4 A7 A9 EX EX EX
E G#m A B Ar noy shomoy uddshohin michile 1 2 3 3 Tumi shei purnota amar onubhobe E G#m A B Ar noy adhar, tumi shone deke nile 1 2 3 3 Vore mon ontohin orning ek utshobe
Rest of same like verse Please Dont FOrget to Rate It :) Lyrics: Shedin bhore, buker ghobhire Shunichi jome thaka neel bedonar daake Ei shohore eet er pahare, chilona keo je deyar prerona Jontre badha mon, chilo klanto oshohay Orthe kena shukh, mriyoman dukkher chaiey Ar noy shomoy uddshohin michile Tumi shei purnota amar onubhobe Ar noy adhar, tumi shone deke nile Vore mon ontohin orning ek utshobe Ajke shuni anondodhoni Prithibi voreche shukhe beche thakar mayai Shunno ashar jibonto vashay, odure dekhechi praner mohonai

roll up this ad to continue

share this page

See Also: