E-Chords
Walter Spencer

Weed(Chords)

Walter Spencer

Key: G
(/) Slide Up  (\) Slide Down  (h) Hammer On  (p) Pull Off  (b) Bend (r) Release (v) Vibrato 

   G 
e|--------2--3-2-3-----------------------------------------------------------| 
B|--3--5------------3-2-3----------------------------------------------------| 
G|-------------------------3(h)4(p)3--0-0----------0-4-2-0--2-0--------------| 
D|----------------------------------------2-2--0h4--------4------------------| 
A|---------------------------------------------------------------------------| 
E|---------------------------------------------------------------------------| 

e|--------2--3-2-3-5-3-2---0------------------------------5------5-----------| 
B|--3--5-----------------3---3-0--------------2---2-3--3/5--7p5h7------------| 
G|-------------------------------2--0h2-4-0--2---2---------------------------| 
D|---------------------------------------------------------------------------| 
A|---------------------------------------------------------------------------| 
E|---------------------------------------------------------------------------| 

e|--3-0----------------------------------------------------------------------| 
B|------3-0-3-5-3-0------------------1--1-----------7-5---7------------------| 
G|------------------4--3-4-5-4-0---0--0--0---0--5h7-----5---7----------------| 
D|-------------------------------2---------2---------------------------------| 
A|---------------------------------------------------------------------------| 
E|---------------------------------------------------------------------------| 

e|------7--------------------------------------------------------------------| 
B|--7/8---8---5---5------3---------3-3-2-2-1-1-------------------------------| 
G|----------7---7----2h4---2p0-2-4-------------3h4---------------------------| 
D|-------------------------------------------------5-5-3-2-0-----------------| 
A|-----------------------------------------------------------3-2-3-----------| 
E|-----------------------------------------------------------------3---------| 
Verse: G D G Let me tell you a story about a little plant, seems so complete G A D It's got all essential amino acids wrapped up in it's little seed G C A It's a source of fibre, paper and cloth, it's California's number one crop, G D G It's a source of fuel, and yes indeed, It's Organic and Certified Green WEED! Verse: G D G Good times, i'm a-feeling fine, i'm as happy as i can be G A D playing music is me joy, tunes with the bucket boys G C A what else could i ever need? Hows about a Sack of California weed, well G D G weed weed, a little sack of weed, it's Organic and Certified Green Chorus: E You can keep your tobacco, your caffeine, and booze C A marijuana's the drug(medicine) i choose G weed, weed, a little sack of weed D G organic and certified green -solo- Verse: G D G indica, sativa, pot or tea, molta, dope, herb or weed, G A D ganja, cannabis, blueberry kush no matter what you call it, I Love That Bush G C A check out the time, aint it funny what do you know, it's 4 20 G D G weed weed little sack of weed it's organic and certified green Chorus: E You can keep your tobacco, your caffeine, and booze C A marijuana's the drug(medicine) i choose G weed weed, a little sack of weed D G it's Organic and Certified Green FINAL Chorus: E You can keep your tobacco, your caffeine, and booze C A marijuana's the drug(medicine) i choose G weed weed, a little sack of weed D G it's Organic and Certified Green ************************************ | / slide up | \ slide down | h hammer-on | p pull-off | ~ vibrato | + harmonic | x Mute note | b Bend | pb Pre-bend | br Bend release | pbr Pre-bend release | brb Bend release bend ************************************

roll up this ad to continue

share this page

See Also: