E-Chords
Vozes & Versos

Só Pra Lembrar(Chords)

Vozes & Versos

roll up this ad to continue

Key: A
Intro: 
    
     A            F#m       E 
E|--2/5-5-5-5-5---2--2-0-2-4---------------------------| 
B|--2/5-5-5-5-5---2--2-0-2-5---------------------------| 
G|-----------------------------------------------------| 
D|-----------------------------------------------------| 
A|-----------------------------------------------------| 
E|-----------------------------------------------------|
A F#m E (Riff 1) Dentro do meu peito tá guardado A F#m E (riff 2) O teu lugar minha paixão A F#m E (riff 1) Um balaio de versos reservado A F#m E (riff 3) Só pra ter tua emoção Bm D F#m E quando me bate tua saudade E Bm Quando eu tô sozinho à te pensar D F#m Vai logo me dando uma vontade E E7 (riff 1) De enfeitar de versos esse amar A E E F F#m Nosso amor perfeição paz e candura C#m D É carinho é amar tanta ternura A E E7 Um chamego um xodó por natureza A E E F F#m O brilhar dos teus olhos só beleza C#m D O teu jeito é um céu tanta pureza A E (riff 1) Das tristezas tu fostes minha cura. Solo Violão: A E F#m C#m D A E (2x) (repete a música) (Volta a intro)
Riff 1: 

E|-----------------------------------------------------| 
B|-----------------------------------------------------| 
G|-----------------------------------------------------| 
D|--2--0-----------------------------------------------| 
A|--------4--2--0--------------------------------------| 
E|-----------------------------------------------------| 


Riff 2: 

E|-----------------------------------------------------| 
B|-----------------------------------------------------| 
G|-----------------------------------------------------| 
D|-----------------------------------------------------| 
A|-----------0-----------------------------------------| 
E|-0-1-2-3-4-------------------------------------------| 


Riff 3: 

E|-----------------------------------------------------| 
B|-----------------------------------------------------| 
G|-----------------------------------------------------| 
D|-----------------------------------------------------| 
A|--0-1-2----------------------------------------------| 
E|-----------------------------------------------------|
share this page

See Also: