E-Chords
Vozes & Versos

Sertão De Ritmos(Chords)

Vozes & Versos

roll up this ad to continue

Key: Em
Intro.: Em9, D4, D          

Solo Introdução Base Em9 e D  
e|------------0-------7--5--8--7--10--8--14--12--10-12--8|  
B|---------0---------------------------------------------|  
G|-------0-----------------------------------------------|  
D|-----4-----------------0--0---------0---0---------0----|  
A|---2---------------------------------------------------|  
E|-0------------------0-------0----0----------0--0------0|  


e|-7p8p7--------|  
B|-------10-8---|  
G|------------9-|  
D|--------------|  
A|--------------|  
E|--------------|  

Riff 1 (Mudança do C para Am)  

e|--------------|  
B|--------------|  
G|--------------|  
D|--------------|  
A|--3-2-0-------|  
E|--------------|  


Riff 2 (Subida do Em para G)  

e|--------------|  
B|--------------|  
G|--------------|  
D|--------------|  
A|--------------|  
E|--0-2-3-------|  
Em C B7 MARACATU, CIRANDA, BAIÃO DE VIOLA Em C B7 NA BAGAGEM UM VERSO É A SACOLA G D C Riff 1 Am MISTURANDO OS RITMOS DA MELODIA D TRAZEMOS NO SANGUE ESSA POESIA Em C B7 XOTE E XAXADO CONSTROI A CANÇÃO Em C B7 ANIMANDO AS NOITES DO NOSSO SERTÃO G D C Riff 1 Am ZABUMBA, RABECA, FORRÓ VIOLADO D PANDEIRO, TRIÂNGULO E O CÔCO EMBOLADO
G D C Riff 1 Am VENHA DANÇAR NO MEU SERTÃO Em Riff 2 VENHA CONHECER O MEU TORRÃO ( Ê Ô ...) G D Am SENTINDO NA ALMA A MÚSICA QUE TEM D C AMOR, ALEGRIA, SAUDADE TAMBÉM B7 Em Riff 2 QUE NA NOSSA CULTURA É INSPIRAÇÃO (Ê Ô ...) 2x
share this page

See Also: