E-Chords
Vintage Trouble

Not Alright By Me(Chords)

Vintage Trouble

roll up this ad to continue

Key: D
Riff 1 
e|--2----3-2----0-2--| 
B|--3----3-3----3-3--| 
G|--2----2-2----2-2--| 
D|-------------------| 
A|-------------------| 
E|-------------------| 

Intro - x2 
e|--2-0-5-3-----0--2--| 
B|--3-3-3-3---2-2--3--| 
G|--2-2-2-0---2----2--| 
D|--0-0-0-0---2----0--| 
A|--------2-----------| 
E|--------3-----------| 
D G Something hit me deep A D On my sunset walk through the streets D G I could see and hear A D But I couldn?t feel or breathe D G From tuning out this static world A D I?ve lost the sense of peace G A D And that?s not alright by me D G The LA Times and Channel 5 A D And New York Magazine D They stain my soul G A D And I know you know what I mean D G They tear apart the hopeful heart A D Til it doesn?t bleed or dream G A D Riff 1 And that?s not alright by me G D Riff 1 Pull on the rope that lifts the sun back to the sky G D Riff 1 Hold a hand. Cry on a shoulder. G D Riff 1 Listen in the wind and open up your eyes. A And feel again. A Feel again. D G Where the roads cross A D And time stands still D G I?m frozen in my tracks A D Against my will D G The streetlight is dimming A D And it won?t shine again until G A D I say It?s not alright by me G A D Not alright by me G A D Not alright by me G A D Not alright by me G A D Not alright by me
share this page

See Also: