E-Chords
Vinny

Só Um Beijo(Chords)

Vinny

Key: Em
Intro: Em  C9  D  F#m7 (2x)
 
 
e|------------------------------------------| 
B|---7h-8--7---7h-8----7-8-9--8-7-----------| 
G|------------------7-------------9---------| 
D|----------------------------------7~------| 
A|------------------------------------------| 
E|------------------------------------------| 

e|-------------------------------------------------| 
B|---7h-8--7---7h-8----7-8-9--8-7------------------| 
G|------------------7-------------9----------------| 
D|----------------------------------7/5--4---------| 
A|-----------------------------------------5-7-----| 
E|-------------------------------------------------| 
Em C9 D F#m7 Nem um beijo foi melhor que o seu*¹
 
e|----12-H.a-----------| 
B|----12-H.a-----------| 
G|---------------------| 
D|---------------------| 
A|---------------------| 
E|---------------------| 
 
Ainda me lembro E eu achando que seria só um beijo Só você me fez acreditar num mundo perfeito Tudo o que é meu ainda tem teu jeito Am Teu gosto de mar Em Teus dentes de marfim Am C9 (D D4 D)*² Teu jeito de me amar enquanto me sorri
e|---------------| 
B|---------------| 
G|---------------| 
D|---0h-2--------| 
A|--------3-2----| 
E|---------------| 
Em C9 D D4 D Só um beijo igual ao teu Em C9 D D4 Beijo que eu roubei pra mim Em C9 D D4 D Só um beijo igual ao teu Em C9 D D4 D Me completa até o fim Em C9 D D4 D Só um beijo igual ao teu Em C9 D D4 Beijo que eu roubei pra mim Em C9 D D4 D Só um beijo igual ao teu Em C9 D D4 D Me completa até o fim
Solo: Em C9 D F#m7
e|------------------------------------------| 
B|---7h-8--7---7h-8----7-8-9--8-7-----------| 
G|------------------7-------------9---------| 
D|----------------------------------7~------| 
A|------------------------------------------| 
E|------------------------------------------| 
 
Em C9 D F#m7 Nem um beijo foi melhor que o seu Qual é o segredo De me seduzir assim desde o começo? Só você me fez acreditar num mundo perfeito E tudo o que é meu ainda tem teu jeito Am Teu gosto de mar Em Teus dentes de marfim Am C9 (D D4 D)*² Teu jeito de me amar enquanto me sorri
e|---------------| 
B|---------------| 
G|---------------| 
D|---0h-2--------| 
A|--------3-2----| 
E|---------------| 
Em C9 D D4 D Só um beijo igual ao teu Em C9 D D4 Beijo que eu roubei pra mim Em C9 D D4 D Só um beijo igual ao teu Em C9 D D4 D Me completa até o fim Em C9 D D4 D Só um beijo igual ao teu Em C9 D D4 Beijo que eu roubei pra mim Em C9 D D4 D Só um beijo igual ao teu Em C9 D D4 D Me completa até o fim Me completa...
Solo: Em C9 D F#m7 (2x)
e|------------------------------------------| 
B|---7h-8--7---7h-8----7-8-9--8-7-----------| 
G|------------------7-------------9---------| 
D|----------------------------------7~------| 
A|------------------------------------------| 
E|------------------------------------------| 

e|--------------------------------------------| 
B|---7h-8--7---7h-8------10b--10r-10----------| 
G|------------------7~------------------------| 
D|--------------------------------------------| 
A|--------------------------------------------| 
E|--------------------------------------------|

roll up this ad to continue

share this page

See Also: