E-Chords
Vinny

Quanto Tempo Faz(Chords)

Vinny

Key: A
Intro 2x: A9  D9  

A9		    D9  
  Toda a cidade já parou  
A9			   D9  
  Papeis por toda rua eu também já vou  
A9			  D9  
  Me sinto bem nem sei porque  
A9				D9  
  Você passou por mim nem conseguiu me ver  

C#m			D  
  Nao, não tem porque você se desculpar  
	     A  
  Ninguém me vê  
		E  
  E eu nem pensava em te encontrar  

  
A9 D E Não sei dizer quanto tempo faz A9 D E Não sei dizer quanto tempo faz F#m C#m D E Mas posso ver, tudo mudou de mais A Eu não
Intro 2x: A9 D9 A9 D9 Eu me lembrei de quando eu A9 D9 Estava morto e foi você quem acendeu C#m D Nao, não tem porque você se desculpar A Ninguém me vê E E eu nem pensava em te encontrar (Refrão) Solo: F G F E
  
e|-----------------------------------------------------------------------|  
B|-------13--15b17---17b15---17b15-----13--------------------------------|  
G|-12/14----------------------------14----14-14--12--10--9--10--9h10p9---|  
D|---------------------------------------------------------------------10|  
A|-----------------------------------------------------------------------|  
E|-----------------------------------------------------------------------|  

e|-----------------------------------------------------------------------|  
B|-9----9p7--------------------------------------------------------------|  
G|----------9p7----------------------------------------------------------|  
D|--------------10--4--6-------------------------------------------------|  
A|-----------------------------------------------------------------------|  
E|-----------------------------------------------------------------------|  
(Refrão 2x)

roll up this ad to continue

share this page

See Also: