E-Chords
Vinícius Ferreira

Trincheiras(Chords)

Vinícius Ferreira

roll up this ad to continue

Key: F
Intro Am  F6  Am  F6 

    Am                                                       
E|-----------0------------0------------0-------------0--------| 
B|-------1------------1------------1-------------1------------| 
G|---2------------2------------2-------------2----------------| 
D|------------------------------------------------------------| 
A|0------------0-------------0------------0-------------------| 
E|------------------------------------------------------------|
      F6 
E|------------------------------------------------------------| 
B|-------------3------------3-------------3------------3------| 
G|---------2------------2-------------2------------2----------| 
D|-----0------------0-------------0------------0--------------| 
A|------------------------------------------------------------| 
E|--1------------1-------------1------------1-----------------|
    Am                                                       
E|-----------0------------0------------0-------------0--------| 
B|-------1------------1------------1-------------1------------| 
G|---2------------2------------2-------------2----------------| 
D|------------------------------------------------------------| 
A|0------------0-------------0------------0-------------------| 
E|------------------------------------------------------------|
      F6 
E|------------------------------------------------------------| 
B|-------------3------------3-------------3------------3------| 
G|---------2------------2-------------2------------2----------| 
D|-----0------------0-------------0------------0--------------| 
A|------------------------------------------------------------| 
E|--1------------1-------------1------------1-----------------|
Am Dm Abra os olhos a guerra começou G Am Não há mais como fugir Am Dm G Há tantos feridos, há desolados, abatidos E Ah soldado desista.. de querer desistir Am G Nesses tempos de luta Dm G Me lembrei do que Ernest escreveu um dia Am G Dm Quem está ao seu lado nas trincheiras importa mais do que a própria G Guerra Dm G C Quem serão o seu Hur, seu Arão? A7 Dm Quem sustentarão suas mãos? G C Quem te verá cair? E Am Quem irá te suprir? G Am A4 A Quem não deixará você pra trás? Dm G C Quem contará suas histórias E Am Quem cantará suas vitórias G C E Quem não esquecerá suas inglórias E G Am Quem estará a sua dianteira? G Am Quem viverá ou quem morrerá G Am G Dm G Por você em suas trincheiras? ( Am G Dm G E ) Dm G C Quem serão o seu Hur, seu Arão? A7 Dm Quem sustentarão suas mãos? G C Quem te verá cair? E Am Quem irá te suprir? G Am A4 A Quem não deixará você pra trás? Dm G C Quem contará suas histórias E Am Quem cantará suas vitórias G C E Quem não esquecerá suas inglórias E G Am Quem estará a sua dianteira? G Am Quem viverá ou quem morrerá G Am9 Por você em suas trincheiras?
share this page

See Also: