E-Chords
Video Hits

Trombetas De Isaías(Chords)

Video Hits

roll up this ad to continue

Key: G
Intro A  C  G 

G        A            C          G 
Ele é o cara das trombetas de isaías 
         A            C          G 
Deixa passar o trem das oito pontualmente 
         A            C          G 
Desperdiçou três anos em hotelaria 
         A            C          G 
Coisa que hoje o cara nem se arrepende 

A#          A          G 
São as trombetas de isaías 
A#          A          G 
Soando para um novo dia 
  
G        A            C          G 
Ele é o cara das trombetas de isaías 
         A            C          G 
Tira do pai inspiração pra virar gente 
         A            C          G 
Lavando a cara numa ducha de água fria 
         A            C          G 
Pensou em notas para o trem do meio-dia 

A#          A          G 
São as trombetas de isaías 
A#          A        G# 
Soando para um novo dia, novo dia, novo 

E|---------------------------------------------| 
B|---------------------------------------------| 
G|---------------------------------------------| 
D|---------------------------------------------| 
A|--6-6--5-6-8-6-5-5-3-1----------1----------1-| 
E|-----------------------3-3--1-3---3-3--1-3---|
Solo G A C G A B D A A# A G São as trombetas de isaías A# A G# Soando para um novo dia, novo dia, novo
E|---------------------------------------------| 
B|---------------------------------------------| 
G|---------------------------------------------| 
D|---------------------------------------------| 
A|--6-6--5-6-8-6-5-5-3-1----------1----------1-| 
E|-----------------------3-3--1-3---3-3--1-3---|
share this page

See Also: