E-Chords
Vertz

Flores(Chords)

Vertz

Key: D
Intro D  A  G 

Guitarra 2x 

   D 
E|-2--3p2---2----------------| 
B|-3------3---3----3---------| 
G|-2------------2----2---2---| 
D|-0-------------------0-----| 
A|---------------------------| 
E|---------------------------| 

   A           G 
E|-------------3--3----------| 
B|-----2-------3----3---3----| 
G|---2---2-----0------0------| 
D|-2-------2---0-------------| 
A|---------------------------| 
E|---------------------------| 

Verse 1:

D Abro os meus olhos nem sei quem eu sou A G E te procuro em vários rostos D A solidão é real A G Meus sonhos eu perdi nos bolsos D Da minha claça de linho azul A G Que eu comprei para o outono D Não espere pro jantar A G Já se passa mais um ano Enfim
Ponte Bm A Em A7

Verse 2:

D A tristeza tem um cais A G É profunda como o oceano D Só teus olhos orientais A G Mudariam os meus planos Bm Dos versos que escrevi A Para o teu coração profano Em Do setembro que esteve aqui A7 Já se passa mais um ano
Solo Bm  A  Em  A7 

E|------------------------------| 
B|--------2h3p2-----------------| 
G|-2/4~~~-------4-2---2h4p2-----| 
D|--------------------------4~~-| 
A|------------------------------| 
E|------------------------------| 

E|------------------------------| 
B|------------------------------| 
G|------------------------2-2/4-| 
D|-2h4p2----------2/4\2-4-------| 
A|-------5-2~-2-5---------------| 
E|------------------------------| 

E|------------------------------| 
B|-2-h3-p2----------------------| 
G|----------2~~----/4~~---------| 
D|------------------------------| 
A|------------------------------| 
E|------------------------------| 
Bm As cores A Das flores que não dei G Com o tempo te perdi Em Um dia a gente foi Bm As cores A Das flores que não dei G Com o tempo te perdi Em Um dia a gente foi D Feliz

Verse 2:

D A tristeza tem um cais A G É profunda como o oceano D Só teus olhos orientais A G Mudariam os meus planos Bm Dos versos que escrevi A Para o teu coração profano Em Do setembro que esteve aqui A7 Já se passa mais um ano
Solo Bm  A  Em  A7 

E|------------------------------| 
B|--------2h3p2-----------------| 
G|-2/4~~~-------4-2---2h4p2-----| 
D|--------------------------4~~-| 
A|------------------------------| 
E|------------------------------| 

E|------------------------------| 
B|----------------------------0-| 
G|------------------------2/4---| 
D|-2h4p2----------2/4\2-4-------| 
A|-------5-2~-2-5---------------| 
E|------------------------------| 

E|------------------------------| 
B|-2-h3-p2---2---3---5~~--------| 
G|------------------------------| 
D|------------------------------| 
A|------------------------------| 
E|------------------------------| 

 
Bm As cores A Das flores que não dei G Com o tempo te perdi Em Um dia a gente foi Bm As cores A Das flores que não dei G Com o tempo te perdi Em Um dia a gente foi D Feliz

roll up this ad to continue

share this page

See Also: