E-Chords
Vertz

Casa(Chords)

Vertz

Key: F

Verse 1:

F Vamos juntar as escovas de dentes Bb Me dá um beijo no portão Gm7 Te espero com a janta quente C7 De repente discutir a relação F As contas que venceram quinta-feira Bb Dar risada da nossa situação Gm7 Brigar pela luz acessa C7 O leite que virou no fogão F Procurar a tal independência Bb Ou decretar nossa prisão ( Gm7 C7 ) Dm7 Gm7 Tudo vai ser tão simples Dm7 Gm7 Tudo vai ser tão simples Dm7 Gm7 Tudo vai ser tão simples Dm7 Gm7 Tudo vai ser tão simples
Dm7 Vai ter a nossa cara Gm7 Vai ter o nosso cheiro Am7 Vai ter o teu sorriso Bb Estampado nas paredes

Verse 2:

F Vamos parcelar Bb Em mais 120 vezes Gm7 C7 Guardar dinheiro pro verão F Vamos ter um cão Bb E uma porta enfeitada cheia de cores Gm7 Um jardim com copos de leite C7 E um jasmim C7(9) Pra perfumar o outono Dm7 Gm7 Tudo vai ser tão simples Dm7 Gm7 Tudo vai ser tão simples Dm7 Gm7 Tudo vai ser tão simples Dm7 Gm7 Tudo vai ser tão simples
Dm7 Vai ter a nossa cara Gm7 Vai ter o nosso cheiro Am7 Vai ter o teu sorriso Bb Estampado nas paredes
E|---------------------5-6-5---------------------------| 
B|---/6~~--6p5h6------6------6---6-6p5h6---------------| 
G|---------------7~--7---------7---------7~-7p5h7------| 
D|------------------------------------------------5h7~-| 
A|-----------------------------------------------------| 
E|-----------------------------------------------------| 

E|---------------------5-6-5---------------------------| 
B|---/6~~--6p5h6------6------6---6-6p5h6---------------| 
G|---------------7~--7---------7---------7--7p5--7~~---| 
D|-----------------------------------------------------| 
A|-----------------------------------------------------| 
E|-----------------------------------------------------|

roll up this ad to continue

share this page

See Also: