E-Chords
Venus

The Red Room(Chords)

Venus

roll up this ad to continue

Key: E


Intro (0:00) 

E-------------------| 
b-------------------| 
g--9--9---12-12-12--| 
d--9--9---12-12-12--| x4 
a--7--7---10 10-10--| 
e-------------------| 

0:14 
E----------------------| 
b----------------------| 
g--9-9-7-9---12-12-12--| 
d--9-9-7-9---12-12-12--| x8 
a--7-7-5-7---10 10-10--| 
e----------------------| 
Verse (0:40) E Watching their screen D My eyes are taking in their schemes C# I feel like their brains C C# Turned me into a freak E Fifteen square feet D# This is my kingdom, I mean D This red room is C# The cell I locked myself in Chorus (1:07) C C# D D# Walls, walls, walls are bleeding C C# D D# Walls, walls are falling down on me
Bridge (1:34) 

E----------------------| 
b----------------------| 
g--9-9-7-9---12-12-12--| 
d--9-9-7-9---12-12-12--| x4 
a--7-7-5-7---10 10-10--| 
e----------------------| 
Verse (1:47) E Watching their screen D# I put my feelings to sleep D Nothing seems real C# D Except the agony we hear E And when blood is raining D Through the holes in the roof C# I'm standing and gazing C C# At the red of my room Chorus (2:13) C C# D D# Walls, walls, walls are bleeding C C# D D# Walls, walls are falling down on me C C# D D# Walls, are bleeding C C# D D# Walls, are bleeding C C# D D# Walls, are bleeding
Outro (3:18) 

E------------|-----| 
b------------|-----| 
g--9-7-9-12--|-----| 
d--9-7-9-12--|--8--| x2 
a--7-5-7-10--|--8--| 
e------------|--6--| 
           x3
share this page

See Also: