E-Chords
Venus

Poison(Chords)

Venus

roll up this ad to continue

Key: Dm
   Dm            Dm            Gm            Am 
e-------------|-------------|-------------|-------------| 
b--6-6-6-6-6--|--6-6-6-6-6--|--3-3-3-3----|-------------| 
g--7-7-7-7-5--|--7-7-7-7-5--|----------5--|--7-7-7-7-5--| 
d--7-7-7-7-7--|--7-7-7-7-7--|--5-5-5-5-5--|--7-7-7-7-7--| 
a--5-5-5-5-5--|--5-5-5-5-5--|--5-5-5-5-5--|--7-7-7-7-7--| 
e-------------|-------------|--3-3-3-3-3--|--5-5-5-5-5--| 
            x2            x2            x2            x2 
Verse (0:18) Dm Do you think it's poison? I believe it's a cure Is it a common point between me and you? Gm Are we defending our idiosyncrazy? Am Are we maybe thinking we still wanna get crazier? Verse (0:38) Dm Would it be because, we're in a wrong direction? Could it be a cause for our too many questions? Gm Is it a shame not to know what we can win and lose? Am Are we to be blamed for this and for the whole world, too? Verse (0:55) Dm Should we reject life, in perfect empathy? Or give everyone time and make it sweeter? Gm Well it seems like addiction to the human weakness A It's like a self-restriction to what could be called happiness
e------------------| 
b------------------| 
g--7-9-10-9--------| 
d-------------8-7--| 
a------------------| 
e------------------| 
Verse (1:14) Dm And we still need more time to understand ourselves We are like we are, there's nothing else we meant, Gm One day we shall have learnt, how we have to like ourselves Am And we'll share everything, and we'll share everything else Verse (1:32) Dm We know we need more time, to understand ourselves We are like we are, there's nothing else we meant Gm One day we shall have learnt, how we have to love the best Am And we'll give everything, and we'll give all the rest
Violin riff (1:51) 

e------------------| 
b------------------| 
g--7-9-10-9--------| 
d-------------8-7--| 
a------------------| 
e------------------| 
Verse (2:28) Dm Can you think of a reason, I believe it's too pure Too much imagination makes you feel insecured Gm Our backbones are bending, drawing up to the ground Am Our deepest feelings like joining lips of a wound Verse (2:46) Dm Do we run along life, ruining it sometimes? Do we surf on our worse lies, trying to make them die? Gm Preserving our aloofness, pretending not to guess Am It's a matter of decision, not a question of illusion Verse (3:03) Dm And we know we need more time to understand ourselves We are like we are, there's nothing else we meant Gm One day we shall have learnt how we have like ourselves Am And we'll share everything and we'll share everything else
Bridge (3:23) 

e------------------------------| 
b------------------------------| 
g--5-7-10-9-9---5-7-12-10-9-9--| 
d------------------------------| 
a------------------------------| 
e------------------------------| 
Verse (4:07) Dm Do you think it's poison? I believe it's a cure Is it a common point, between me and you? Gm Are we defending, our idiosyncrazy? Am Are we maybe thinking we still wanna get crazier? Verse (4:25) Dm Would it be because, we're in a wrong direction? Could it be a cause for, our too many questions? Gm Is it a shame not to know, what we can win and lose? Am Are we to be blamed for this, and for the whole world, too? Verse (4:44) Dm Should we reject life, in perfect empathy? Or give everyone time and make it sweeter? Gm Well it seems like addiction, to the human weakness Am It's like a self-restriction, to what could be called happiness Verse (5:03) Dm And we still need more time, to understand ourselves We are like we are, there's nothing else we meant Gm One day we shall have learnt, how we have to like ourselves Am And we'll share everything, and we'll share everything else
Outro (5:21) 

e-----------------------| 
b-----10-8-----8-6---5--| 
g--7--------------------| 
d-----------7-----------| The Chords are always Dm Dm Gm Am but with distortion 
a-----------------------| 
e-----------------------|
share this page

See Also: