E-Chords
Venus

Navajo Dream(Chords)

Venus

roll up this ad to continue

Key: Em


Intro (0:00) 

Em C A B 
Em C A C 
G  C A B 
G  C A D#m 



Verse (0:36) 

Em 
They want me to dance, man 
C 
They want me to dance 
A 
They want me to dance 
C 
And I get scared 
Em 
They want me to dance, man 
C 
They want me to crawl 
A 
They want me to go down 
C 
And I crawl again 



Verse (0:54) 

Em 
I feel like I'm a cat, man 
C 
Can't feel like I'm a man 
A                              D#m 
I get out and I look down at my legs 
Em 
I feel like I'm a cat, man 
C 
And they believe I dance 
A 
I get out 
                 B 
I get out of their brains 



Chorus (1:11) 

Em         C     D      B 
Everything's ok, I lost my way 
Em         C     A      B 
Everything's ok, I lost my way 



Riff (1:29) 

e----------------------| 
b----------------------| 
g----------------------| 
d--2--2--2-2--5--0--2--| 
a--2--2--2-2--5--0--2--| 
d--2--2--2-2--5--0--2--| 
Verse (1:38) Em They stop me at the top, man They stop me at the top They stop me Stop and try again I rush down to the bottom And I get at the back I slump down in the middle of the crowd Verse (1:56) Em I turn round and I watch, man C And I turn round again Em I'd like to believe it But I can't Em She gets me on the run, man C She gets me with a gun A She holds onto the railing B And she bends Chorus (2:13) Em C A B Everything's ok, I lost my way Em C A B Everything's ok, I lost my way Violin solo (2:31)
   Em 
e-------------------------------------------------| 
b--8-10---8-10---8-7-8-10-8-7-5---8-7-8-10-8-7-5--| 
g-------------------------------------------------| 
d-------------------------------------------------| 
a-------------------------------------------------| 
d-------------------------------------------------| 

   C      A      Em 
e-------------------------------------------------| 
b--8-10---8-10---8-7-8-10-8-7-5---8-7-8-10-8-7-5--| 
g-------------------------------------------------| 
d-------------------------------------------------| 
a-------------------------------------------------| 
d-------------------------------------------------| 

    Em                C                  A                  B 
e------------------|------------------|------------------|------------------| 
b--8-7-8-10-8-7-5--|--8-7-8-10-8-7-5--|--8-7-8-10-8-7-5--|--8-7-8-10-8-7-5--| 
g------------------|------------------|------------------|------------------| 
d------------------|------------------|------------------|------------------| 
a------------------|------------------|------------------|------------------| 
d------------------|------------------|------------------|------------------| 
Verse (2:58) Em I feel like I'm a cat, man C Can't feel like I'm a man A I feel like I'm a cat, man B Can't feel like I'm a man Chorus (3:06) Em C A B Everything's ok, I lost my way Em C A B Everything's ok, I lost my way Em C A B Everything's ok, I lost my way Em C A B Em Everything's ok, I lost my way
share this page

See Also: