E-Chords
Venus

Everybody Wants To Be Loved(Chords)

Venus

roll up this ad to continue

Key: E


Intro (0:00) 

   E                 E 
e-----------------|-----------------| 
b-----------------|-----------------| 
g-----------------|-----------------| 
d--2--0--2--0--2--|--2--0--2--0--2--| 
a--2--0--2--0--2--|--2--0--2--0--2--| 
D--2--0--2--0--2--|--2--0--2--0--2--| 


   E              G              G              E 
e--------------|--------------|--------------|--------------| 
b--------------|--------------|--------------|--------------| 
g--------------|--------------|--------------|--------------| 
d--0--2--0--5--|--5--5--5--5--|--5--5--5--2--|--0--2--0--2--| 
a--0--2--0--5--|--5--5--5--5--|--5--5--5--2--|--0--2--0--2--| 
D--0--2--0--5--|--5--5--5--5--|--5--5--5--2--|--0--2--0--2--| 
Verse (0:23) E When I was Sixteen, I could do anything G it was so easy E G My emotion were so closed to the surface E G I'm finding it, harder and harder to stay in touch A E They want to be loved, They have to be loved The whole world Bridge (0:57)
   E              E              E              E 
e--------------|--------------|--------------|--------------| 
b--------------|--------------|--------------|--------------| 
g--------------|--------------|--------------|--------------| 
d--0--2--0--2--|--0--2--0--2--|--0--2--0--2--|--0--2--0--2--| 
a--0--2--0--2--|--0--2--0--2--|--0--2--0--2--|--0--2--0--2--| 
D--0--2--0--2--|--0--2--0--2--|--0--2--0--2--|--0--2--0--2--| 
Verse (1:13) E When I was Sixteen, I could do anything G it was so easy E G My emotion were so closed to the surface E G I'm finding it, harder and harder to stay in touch A E They want to be loved, They have to be loved The whole world Bridge (1:48)
   E             G               G              E 
e--------------|--------------|--------------|--------------| 
b--------------|--------------|--------------|--------------| 
g--------------|--------------|--------------|--------------| 
d--0--2--0--5--|--5--5--5--5--|--5--5--5--2--|--0--2--0--2--| 
a--0--2--0--5--|--5--5--5--5--|--5--5--5--2--|--0--2--0--2--| 
D--0--2--0--5--|--5--5--5--5--|--5--5--5--2--|--0--2--0--2--| 
Verse (2:01) E When I was Sixteen, I could do anything G it was so easy E G My emotion were so closed to the surface E G I'm finding it, harder and harder to stay in touch A E They want to be loved, They have to be loved The whole world Chorus (2:36) C A E G _ C A | Everybody wants to be loved | E G | Everybody wants to be loved | x4 C A | Everybody wants to be loved | E G _|
share this page

See Also: