E-Chords
Veggie Tales

His Cheeseburger(Chords)

Veggie Tales

roll up this ad to continue

Key: B
INTRO: 
 
e|----2-0-------------2-0-2-4---------2-0-------------4-6-7-9---| 
B|----4-2-------------4-2-4-5---------4-2-------------5-7-9-11--| 
G|------------------------------------------4-------------------| 
D|--4-------4---4---4-----------4---4----------4---4------------| 
A|2---------------2---------------2--------------2--------------| 
E|--------------------------------------------------------------| 
 
e|----2-0-------------2-0-2-4---------2-0-------------4-6---9---| 
B|----4-2-------------4-2-4-5---------4-2-------------5-7---11--| 
G|------------------------------------------4-------------------| 
D|--4-------4---4---4-----------4---4----------4---4------------| 
A|2---------------2---------------2--------------2--------------| 
E|--------------------------------------------------------------|
VERSE: B F# He said to her,'I'd like a cheeseburger A E and I might like a milkshake as well' B F# She said to him, 'I can't give you either' A E He said, 'Isn't this this Burger Bell?' Eb G#m She said,' Yes it is but we're closed now E F# but we open tomorrow at 10' G#m F# He said, ' I am extremely hungry E F# but I guess I can wait until then' Chorus: F# B F# 'Cos you're his cheeseburger B F# His yummy cheeseburger E He'll wait for you F# He will wait for you B F# Oh, you are his cheeseburger B F# His tasty cheeseburger E He'll wait for you F# B Oh he will wait for you VERSE 2: He stayed at the drive-thru till sunrise He may have dozed off once or twice When he spotted a billboard for Denny's- Bacon and Eggs for half price How could he resist such an offer? He really needed something to munch Cheeseburger please do not get angry (Don't get angry) He'll eat and be back here for lunch Chorus: Cuz you're his cheeseburger His precious cheeseburger Be back for you He'll be back for you Won't be so long cheeseburger Oh lovely cheeseburger Be back for you E F# B Eb Oh he'll be back for you G#m Because he loves you cheeseburger with all his heart B And there ain't nothin gonna tear you two apart F# and if the world suddenly ran out of cheese D he would get down on his hands and knees Bb D to see if someone accidently dropped some cheese in the dirt E and he would wash it off for you E wipe it off for you E Clean that dirty cheese off JUST FOR YOU!!!!!
e -------------------------------------5-----------------------5- 
B ------------------------------------------------------------5-- 
D -----------------------------------------------------------6--- 
G -4----4----6----7---------6-------------------------------7---- 
A --------------------------------------------------------------- 
E -----------------------------------------------------12/5------ 
  You   are  his  cheeeeese-buuuurrrrr-gerrrrrrrrr    
  B          G#m  A         E          A    <--- these are the chords 
                                                 for the last line if 
                                                 you please. 
 
   A or A   Bb or Bb    B    D or D    Eb      E or E    F#   G#m       
   0    5   1      6    2    2    5     6      0    7    2     4 
   2    5   2      6    4    3    7     8      0    9    2     4 
   2    6   2      7    4    2    7     8      1    9    3     5 
   2    7   2      8    4    0    7     8      2    9    4     6 
   0    7   1      8    2    0    5     6      2    7    4     6 
   0    5   1      6    2    x    5     6      0    7    2     4 
 
============================================================================
share this page

See Also: