E-Chords
Valira

Guerra Fría(Chords)

Valira

Key: E
e |----------------------------||      ---12----12----12----| 
B |--9h10----10p9-7----7-------||      ---10----10----10----| 
G |----------------------9-----||      ---11----11----11----| 
D |----------------------------||      ---12----12----12----| 
A |----------------------------||      ---X-----X-----X-----| 
E |----------------------------||  x3  ---X-----X-----X-----|         Todo x2 
D E Hay días en que te sentenciaría A Días en que no quiero ser E D* Hay que ver que no afino la puntería D E Tú que no entiendes la melancolía A Yo sin ella no sé volver E D* A imaginarte en mi mundo de poesía D E Y es que tanta duda ya me cansa A Días que no entiendo la balanza E D* Ni por qué me escapo de tu compañía D E Hay noches que solo me escucho a mí A Y me castigo con tanto reproche E D* Y me despierta el pecado que cometí ¡Sí! F#m Ya lo tengo, está claro A Somos culpables del disparo F#m De la matanza y las veces que hemos sangrado A No entiendo esto de alejarte C#m F#m Si soy adicto y quiero envenenarme A Cuando me rompo me pongo a buscar la excusa F#m Estoy al borde, ¿de qué me acusas? E Quiero viajar bien lejos Buscar mi musa y hacerme viejo F#m D A D F#m Quemaré las melodías que me hablaban sobre ti D E Del infierno en que creías F#m D A D F#m Tumbaré la teoría que me hacía tu aprendiz D E Cada cuerpo que encendías Un golpe D - E - A - E - D D E Bien ahora que la distancia nos guía A Siento que así se va a romper E D* Esta historia de balas e infantería D E Tú voz que suena perdida y vacía A Y yo vagando te la encontré E D* Allí donde juramos la fantasía D E Siempre con tus planes de venganza A Y el engaño de tu propaganda E D* Y yo luchando por una causa vacía D E Hay voces, que solo vienen de ti A Y que golpean tan fuerte que no sé E D* Si estoy dispuesto a escucharlas o voy a huir F#m Ya lo tengo, está claro.... + Estribillo Un golpe. Tocar estos acordes con cejilla en los trastes 5 (D) 7(E) y 9(F#m7) D - E - F#m7 - E - D D E Ahora sé que la ceniza que hay en mi piel F#m7 De tanto quemar, quemar E D La guerra fría que está en pie D E Tú quizá independiente niegas ser mitad F#m7 Y yo que fui solo tu diez por cien E D Soñando que te hice viral D E Ya lo sé noventa tienen todo tu interés F#m7 De tanto quemar, quemar E D Me vi perdido y sin andén D E Yo quizá cuando visite a plazos tu ciudad F#m7 Preguntaré quien viaja en ese tren E D Y si esta vez es tu mitad Un golpe F#m D A D F#m Quemaré las melodías que me hablaban sobre ti D E Del infierno en que creías Rasgado F#m D A D F#m Quemaré las melodías que me hablaban sobre ti D E Del infierno en que creías F#m D A D F#m Tumbaré la teoría que me hacía tu aprendiz D E Cada cuerpo que encendías F#m - D - A - D - F#m - D E Del infierno en que creías F#m - D - A - D - F#m - D E Cada cuerpo que encendías
e |-----------9-------9-7-------7-------------------------9----------7---|| 
B |---10-7-10-------7---------7---10-----7-9------10-7-10-------7-10-----|| 
G |----------------------------------------------------------------------|| 
D |----------------------------------------------------------------------|| 
A |----------------------------------------------------------------------|| 
E |----------------------------------------------------------------------||

roll up this ad to continue

share this page

See Also: