E-Chords
V8

Parcas Sangrientas(Chords)

V8

roll up this ad to continue

Key: A
Intro: 
1|-------------- 
2|--------------X3 
3|-------------- 
4|-2--2------2-- 
5|-0----5-3--0-- 
6|-------------- 

Riff Principal 
  4/4         4/4 
1|---------|-|----------------------------- 
2|---------|-|----------------------------- 
3|---------|X|----------------------------- 
4|-------2-|4|-------2-------2-------2----- 
5|-5p3p0-0-|-|-5p3p0-0-5p3p0-0-5p3p0---5-3- 
6|---------|-|----------------------------- 

  4/4         3/4 
1|---------|-|--------------------- 
2|---------|-|--------------------- 
3|---------|X|--------------------- 
4|-------2-|4|-------2-------2----- 
5|-5p3p0-0-|-|-5p3p0-0-5p3p0---5-3- 
6|---------|-|--------------------- 
A Sacrificio Y Muerte Hay D Con Sangre Han Hecho Ríos.
Riff 1 
|--------------------------------------------------------- 
|--------------------------------------------------------- 
|--------------------------------------------------------- 
|-9-----------------------------------9-----9---9-------9- 
|-7-7-7-7-7-7-7-7-7-7-7-7-7-7-7-7-7-7-7---7-7---7----7--7- 
|--------------------------------------------------------- 

---------------------------------------------------------| 
---------------------------------------------------------| 
---------------------------------------------------------| 
-----------9----------------------------------9--7--5--4-| 
-7-7-7-7-7-7--7-7-7-7-7-7-7-7-7-7-7-7-7-7-7-7-7--5--3--2-| 
---------------------------------------------------------| 
A Son Los Dioses Del Olimpo D Reclamando Cuerpos Fríos. Riff 1
Riff 2 
1|----------------- 
2|-----------------X4 
3|----------------- 
4|-2------2-------- 
5|-0--3-4---3-4-5-- 
6|--------------3-- 
Es Inútil Escapar En Sus Brazos No Hay Piedad Riff Principal Ya Las Parcas Nos Invitan A Sus Ritos Asquerosos Riff 1 Pánico Hay Al Descubrir Maldición En Esos Rostros Riff 1 Riff 2 + SOLO Es Inútil Escapar En Sus Brazos No Hay Piedad Riff Principal X2 Brazas, Rocas Arden Hoy Todo Es Degeneración Riff 1 Magma Ardiente Hoy Soy Parte De Tu Enfermiza Pasión
Riff 1 

Final: 
E|------------------------------|-| 
B|------------------------------|-| 
G|------------------------------|X| 
D|-5h7p5---5--------------------|2| 
A|-------7---7-5h7p5---5---6-7--|-| 
E|-------------------8---8-4-5--|-| 

---------------------------------------| 
---------------------------------------| 
---------------------------------------| 
-5h7p5---5-----------------------------| 
-------7---7-5h7p5---5---6--7---8----7-| 
-------------------8---8-4--5---6----5-|
share this page

See Also: