E-Chords
V8

Maligno(Chords)

V8

roll up this ad to continue

Key: D#
 
 Riff|Intro x8 
1|----------------------------
2|----------------------------
3|----------------------------
4|------8------7-----5--------
5|--------------------------8-
6|-6-6----6-6----6-6----6-6---


Riff 2 
1|--------------------|---------
2|-----------------x4-|-Corte---
3|--------------------|---------
4|---10--10--10--8----|---------
5|---8---8---8---6----|-8~~~----
6|--------------------|-6~~~----


Riff 3|Sobre el que van las Estrofas 
  D#5 F5 
1|------------------|---------|
2|-------------(x3)-|---------|
3|------------------|---------|
4|-8/10-10-10-10-10-|---------|
5|-6/8--8--8--8--8--|-9-9-9-9-| 
6|------------------|-7-7-7-7-|
(Siempre repite esta parte 3 Veces y termiba en B5) 1! 2!, 1!, 2! Va!!! Sobre Riff 3 (Buscarle el Ritmo) Harto de cargar con cruces de esta cruel realidad pactaré con el Demonio y mi alma le he de entregar. A cambio le pediré me exima de todo mal mujeres, poderes, placers, dinero, durazno y algo más Riff 3 x2 G#5 C#5 Yo te daré lo que me pidas, A#5 D#5 nada imposible a ti te será, G#5 C#5 pero a cambio tu alma sera mía A#5 D#5 C#5 Riff 3(X2) por toda la eternidad G#5 C#5 Yo te daré lo que me pidas, A#5 D#5 nada imposible a ti te será, G#5 C#5 pero a cambio tu alma sera mía A#5 D#5 C#5 C5 por toda la eternidad Sobre Riff 2 (Sin el Corte) x4 Maligno? Maligno? Maligno? SOLO Sobre Riff 3 X8 G#5 C#5 Yo te daré lo que me pidas, A#5 D#5 nada imposible a ti te será, G#5 C#5 pero a cambio tu alma sera mía A#5 D#5 C#5 Riff 3(X2) por toda la eternidad G#5 C#5 Yo te daré lo que me pidas, A#5 D#5 nada imposible a ti te será, G#5 C#5 pero a cambio tu alma sera mía A#5 D#5 C#5 C5 por toda la eternidad Sobre Riff 3 (Buscarle el Ritmo) Ha pasado mucho tiempo desde que pacté, de todo lo prometido nada recibí Sólo se que cuando llegue el minuto final pasaré a ser residente de un sitio infernal Riff 3 x2 G#5 C#5 Yo te daré lo que me pidas, A#5 D#5 nada imposible a ti te será, G#5 C#5 pero a cambio tu alma sera mía A#5 D#5 C#5 Riff 3(X2) por toda la eternidad G#5 C#5 Yo te daré lo que me pidas, A#5 D#5 nada imposible a ti te será, G#5 C#5 pero a cambio tu alma sera mía A#5 D#5 C#5 C5 por toda la eternidad Sobre Riff 2 (Sin el Corte) x4 Maligno? Maligno? Maligno? Termina en F5
share this page

See Also: