E-Chords
Trombone de Frutas

Me N U(Chords)

Trombone de Frutas

Key: C
F7M                     E7 
Eu quero paz, estar contigo 
A7                       Dm7 
E ter amigos assim, para viver a vida 
G           C 
Igual, vem ver 

F7M                     E7 
Eu quero paz, full of love 
A7                       Dm7 
Me and you between is coisa rara 
G           C 
Tonight will be 

F7M                     E7 
Eu quero paz, estar contigo 
A7                       Dm7 
E ter amigos assim, para viver a vida 
G           C 
Igual, vem ver 

F7M                     E7 
Eu quero paz, full of love 
A7                       Dm7 
Me and you between is coisa rara 
G           C 
Tonight will be 

Tab - Solo 

F7M  
Eu quero paz 
E|------------| 
B|-------5----| 
G|-5-7-5------| 
D|------------| 
A|------------| 
E|------------|
E7 Estar contigo
E|------------| 
B|----5-------| 
G|------7-5---| 
D|---------7--| 
A|------------| 
E|------------|
A7 E ter amigos assim
E|-------------| 
B|---5--5-5--5-| 
G|-----7----7--| 
D|-7-----------| 
A|-------------| 
E|-------------|
Dm7 G C Para viver a vida... Igual...Vem ver
E|------------------------------------------| 
B|-------5--------------------------5--5----| 
G|--------7-5----------------5-4--4-----7-5-| 
D|-7-5-7------7-----------------------------| 
A|------------------------------------------| 
E|------------------------------------------|

roll up this ad to continue

share this page

See Also: