E-Chords
Trapt

Trap Music(Chords)

Trapt

roll up this ad to continue

Refrão 2x:  
(00:48) 
G|-----------------------------------------| 
D|-----------------------------------------| 
A|22222222----------55555555-55555555------| 
E|---------33333333------------------------| 

G|---2-4-----------------| 
D|-----------------------|  (2x) 
A|2~-----------/5~-------| 
E|-------3~--------------| 

(Refrão 4x) 

(Refrão 4x) 

(02:21 / 03:06) 

G|---2-4-----------------| 
D|-----------------------|  (2x) 
A|2~-----------/5~-------| 
E|-------3~--------------| 
share this page

See Also: