E-Chords
Tom. Rock

Queima De Arquivo(Chords)

Tom. Rock

roll up this ad to continue

Key: C
Intro: 

E|-----------------------------------------| 
B|-------3----------7-----------7----------| 
G|-----5---5------7---5------9-------------| 
D|---5----------7---------9----------------| 
A|-----------------------------------------| 
E|-----------------------------------------| 

C D Em (2X) 

Riff 1: 

E|-----------------------------------------| 
B|-----------------------------------------| 
G|-----------------------------------------| 
D|-----------------------------------------| 
A|----8-7-8-7-8-7--------------------------| 
E|----------------8------------------------| 

Riff 2: 

E|-----------------------------------------| 
B|-----------------------------------------| 
G|-----------------------------------------| 
D|-----------------------------------------| 
A|--3-2-3-2-3-2----------------------------| 
E|--------------3--------------------------| 
Am G Decidiu partir Am G (RIFF 2) Não tinha mais clima Am G A casa caiu Am G (RiFF 2) Não foi por falta de aviso
C D C D Foi você quem pediu C D Em Guerras em vez de paz C D C D Atacou, se escondeu C D Em Debaixo das asas dos pais Am G Na sua cabeça Am G (RIFF 2) Planos mirabolantes Am G Passaporte sobre a mesa Am G (RIFF 2) Arma na cintura, fuga na cabeça
(Refrão) C D C D É melhor escapar C D Em Do que pagar pra ver C D C D Um covarde vivo C D Em É melhor que um herói morto e abatido C D C D Foi você quem pediu C D Em Guerras em vez de paz C D C D Atacou, se escondeu C D Em Debaixo das asas dos pais Solo: C D C D C D Em Am G Am G (Riff 2) Oportunidade de mandar abaixo todo o sistema Am G Entregar de bandeja Am G (Riff 2) Pro resto da vida, a própria cabeça (Refrão) C D C D É melhor se calar C D Em Desejar não ver C D C D Um covarde vivo C D Em É melhor do que ser alvo, queima de arquivo C D C D Foi você quem pediu C D Em Guerras em vez de, ou em vez paz C D C D Atacou, se escondeu C D Em Debaixo das asas dos pais ( C D Em ) (2x) (Riff 1) ( Am)
share this page

See Also: