E-Chords
Tito Fernandez

Yo No Bebo(Chords)

Tito Fernandez

roll up this ad to continue

Key: Eb
Yo no bebo compañero, muchas gracias... 

Em* 
Y te pido que entiendas y no insistas. 

C                              B7 
Sé que el vino en mi tierra es regalo precioso 

Em 
Y que tu intención al ofrecérmelo 

C                              B7 
es la intención del hombre generoso 

Em 
que recibe a sus visitas cariñoso. 

(siguen los mismos acordes) 

Yo vengo de pasada con mis cantos, 
Pero no bebo, no. Desde hace mucho. 
Y como un día bebí, sé lo que hago, 
Porque en el vino encontré y sigo encontrando... 

Amarguras hallé, mucha tristeza. 
Pero no culpo al vino de matar mi esperanza. 
Porque de haberme esclavizado a sus aromas, 
aprendí que la vida nunca alcanza. 
Hay tanto que hacer, amigo mío... 
y no se puede hacer ahogado en vino. 

Yo no supe poner la rienda firme 
y se me desbocó el caballo un mal día 
en que embriagado de todo caí con gran dolor por el barranco. 
Me despeñé con mis ansias y mis logros 
y tuve que recuperar la vida desde abajo. 

Y casi me morí. 
Y si no morí 
fue porque el mismo vino me enseñó a cantar 
esperanzado algunos cantos. 

¿Pueden los hombres enorgullecerse 
de maltratar a una mujer porque se está borracho? 
¿Puede justificarse castigar a una madre 
con estúpido olvido porque se está borracho? 

No hay nada que compense los horrores vividos. 
Ni hay humanada razón para el perdón. 
El crimen cometido por culpa de unas copas 
no es culpa de las copas, 
es del que las bebió. 

Por eso yo no bebo desde hace muchos años. 
Porque mi crimen pena y no logro olvidarlo. 
A veces en silencio, cuando se asoma el canto, 
Vuelvo a sentirme vivo y digo con espanto: 
no volveré a beber... 

Miro mis manos, 
las mismas que empuñaron alguna vez el látigo 
y cruzo mi guitarra con intenciones dulces, 
y arranco de sus cuerdas notas de piel y fango. 

Yo vengo de la muerte, compañero... 
y por eso no bebo... 

                      Em 
desde hace muchos años. 


 Em* 
|-7--5(7)-3-5-7--10(12)--7-----------------| 
|-8--7----5-7-8--12------8-----------------| 
|-------------0----------0-----------------| 
|------------------------------------------| 
|------------------------------------------| 
|-0-----------0----------0-----------------| 


              C        B7       Em 
|-----------------0--------2--------0---0--| 
|-----------------1--------0--------0---0--| 
|-----------------0--------2--------0---0--| 
|---------------2--------1-----------------| 
|-------0-1-2-3------3-2----------2--------| 
|-0-2-3-----------------------2-0-----0----|
share this page

See Also: