Tiago Iorc

Ducks In A Pond(Chords)

Tiago Iorc

Key: Db

roll up this ad to continue

	        AfinaÁ„o: D G F C F Eb 

Intro F7M  C  Em 
        F7M  C  Em 
        Eb7M  F4  D4  Gm9 
        Eb7M  F4  D4  Gm9 

Parte 1  
   F7M 
E|-----------------------------------| 
B|-----------------------------------| 
G|-2-2-3-3-2-2-3-3-2-2-3-3-2-2-3-3-0-| 
D|-3-3-3-3-3-3-3-3-3-3-3-3-3-3-3-3-0-| 
A|-----------------------------------| 
E|-----------------------------------| 
    ‚?? ‚?? ‚?? ‚?? ‚?? ‚?? ‚?? ‚?? ‚?? ‚?? ‚?? ‚?? ‚?? ‚?? ‚?? ‚?? ‚??
    C                Em 
E|------------------------------0-0--| 
B|------------------------0-0-0-0-0--| 
G|-0-0-3-3-0-0-3-3--0-0-0-0-0-0-0-0--| 
D|-2-2-2-2-2-2-2-2--2-2-2-2-2-2-2-2--| 
A|-3-3-3-3-3-3-3-3--2-2-2-2-2-2-2-2--| 
E|------------------------0-0-0-0-0--| 
   ‚?? ‚?? ‚?? ‚?? ‚?? ‚?? ‚?? ‚??    ‚?? ‚?? ‚?? ‚?? ‚?? ‚?? ‚?? ‚??
Parte 2
   Eb7M    F4   D4 
E|---------------------------------| 
B|--0-0----0----0---0-0---0-0-0-0--| 
G|--5-5/12-12/9-9---9-9---9-9-9-9--| 
D|--3-3/10-10/7-7---7-7---7-7-7-7--| 
A|--5-5/12-12/9-9---9-9---9-9-9-9--| 
E|--0-0----------------------------| 
    ‚?? ‚??     ‚??    ‚??   ‚?? ‚??   ‚?? ‚?? ‚?? ‚??
    Gm9 
E|--3-3---3-3-3----3-3----3-3-3-3--| 
B|--3-3---3-3-3----3-3----3-3-3-3--| 
G|--4-4---4-4-4----4-4----4-4-4-4--| 
D|--2-2---2-2-2----2-2----2-2-2-2--| 
A|--2-2---2-2-2----2-2----2-2-2-2--| 
E|---------------------------------| 
    ‚?? ‚??   ‚?? ‚?? ‚??     ‚?? ‚??    ‚?? ‚?? ‚?? ‚??
Primeira Parte
   Eb7M    F4 
E|---------------------------------| 
B|--0-0----0--0--0--0--0--0--0--0--| 
G|--5-5/12-12-12-12-12-12-12-12-12-| 
D|--3-3/10-10-10-10-10-10-10-10-10-| 
A|--5-5/12-12-12-12-12-12-12-12-12-| 
E|--0-0----------------------------| 
    ‚?? ‚??     ‚??  ‚??  ‚??  ‚??   ‚??  ‚??  ‚??  ‚??
   Gm9 
E|--3-3---3-3-3----3-3----3-3-3-3--| 
B|--3-3---3-3-3----3-3----3-3-3-3--| 
G|--4-4---4-4-4----4-4----4-4-4-4--| 
D|--2-2---2-2-2----2-2----2-2-2-2--| 
A|--2-2---2-2-2----2-2----2-2-2-2--| 
E|---------------------------------| 
    ‚?? ‚??   ‚?? ‚?? ‚??     ‚?? ‚??    ‚?? ‚?? ‚?? ‚??
   Eb7M   F4    D4 
E|---------------------------------| 
B|--0-0----0----0---0-0---0-0-0-0--| 
G|--5-5/12-12/9-9---9-9---9-9-9-9--| 
D|--3-3/10-10/7-7---7-7---7-7-7-7--| 
A|--5-5/12-12/9-9---9-9---9-9-9-9--| 
E|--0-0----------------------------| 
    ‚?? ‚??     ‚??    ‚??   ‚?? ‚??   ‚?? ‚?? ‚?? ‚??
   Gm9 
E|--3-3---3-3-3----3-3----3-3-3-3--| 
B|--3-3---3-3-3----3-3----3-3-3-3--| 
G|--4-4---4-4-4----4-4----4-4-4-4--| 
D|--2-2---2-2-2----2-2----2-2-2-2--| 
A|--2-2---2-2-2----2-2----2-2-2-2--| 
E|---------------------------------| 
    ‚?? ‚??   ‚?? ‚?? ‚??     ‚?? ‚??    ‚?? ‚?? ‚?? ‚??
Eb7M F4 Why should we be Gm9 Eb7M F4 D4 Gm9 So cautions with each other Eb7M F4 Gm9 When we know what lies beneath Eb7M F4 D4 Gm9 The pa_________in Prť-Refr„o F7M F7M C Em Focus, don't focus on what's wrong Refr„o Eb7M Abm9 Like pretty ducks in a pond we'll be Eb7M Abm9 Like pretty ducks in a pond we'll be Gm9 Cm9 Free from it all F7M Don't focus on what's wrong What's wrong? What's wrong? ( Eb7M F4 D4 Gm9 ) ( Eb7M F4 D4 Gm9 ) Primeira Parte Eb7M F4 Why should we be Gm9 Eb7M F4 D4 Gm9 So cautions with each other Eb7M F4 Gm9 When we know what lies beneath Eb7M F4 D4 Gm9 The pa_________in Prť Refr„o F7M F7M C Em Focus, don't focus on what's wrong Refr„o Eb7M Abm9 Like pretty ducks in a pond we'll be Eb7M Abm9 Like pretty ducks in a pond we'll be Gm9 Cm9 Free from it all F7M Don't focus on what's wrong What's wrong? What's wrong? Ponte
Parte 1 
  Ab7M 
E|-------5----------------5----------| 
B|-----------5---5------------5---5--| 
G|-----3-------3--------3-------3----| 
D|-----------------------------------| 
A|-3----------------3----------------| 
E|-----------------------------------|
  Cm9 
E|-------8----------------8----------| 
B|-----------8---8------------8---8--| 
G|-----9-------9--------9-------9----| 
D|-----------------------------------| 
A|-7----------------7----------------| 
E|-----------------------------------|
Parte 2 
  Ab7M 
E|-------5----------------5----------| 
B|-----------5---5------------5---5--| 
G|-----3-------3--------3-------3----| 
D|-----------------------------------| 
A|-3----------------3----------------| 
E|-----------------------------------|
 Gm7(13-) 
E|-------0----------------0----------| 
B|-------3----------------3----------| 
G|-------------0----------------0----| 
D|-----3-----3---3------3-----3---3--| 
A|-2----------------2----------------| 
E|-----------------------------------|
Parte 3 
  Ab7M 
E|-------5----------------5----------| 
B|-----------5---5------------5---5--| 
G|-----3-------3--------3-------3----| 
D|-----------------------------------| 
A|-3----------------3----------------| 
E|-----------------------------------|
  Cm9 
E|-------8---8-8-8-8-8-8-8-8-8-8-8-8-| 
B|-----------8-8-8-8-8-8-8-8-8-8-8-8-| 
G|-----9-----9-9-9-9-9-9-9-9-9-9-9-9-| 
D|-------------9-9-9-9-9-9-9-9-9-9-9-| 
A|-7---------------7-7-7-7-7-7-7-7-7-| 
E|-----------------------------------| 
              ‚?? ‚?? ‚?? ‚??  ‚?? ‚?? ‚?? ‚?? ‚?? ‚?? ‚??
Parte 4 
   Ebm9 
E|--11-11-11-11-10-10-11-10-11-11-11-| 
B|--11-11-11-11-11-11-11-11-11-11-11-| 
G|--12-12-12-12-12-12-12-12-12-12-12-| 
D|--10-10-10-10-10-10-10-10-10-10-10-| 
A|--10-10-10-10-10-10-10-10-10-10-10-| 
E|-----------------------------------| 
     ‚??  ‚??  ‚??  ‚??  ‚??  ‚??  ‚??   ‚??  ‚??  ‚??  ‚??
  Bbm9 
E|--6-6--6-6-6-6--6-6-6--6-6--| 
B|--6-6--6-6-5-5--6-5-6--6-6--| 
G|--7-7--7-7-7-7--7-7-7--7-7--| 
D|--5-5--5-5-5-5--5-5-5--5-5--| 
A|--5-5--5-5-5-5--5-5-5--5-5--| 
E|----------------------------| 
    ‚?? ‚??  ‚?? ‚?? ‚?? ‚??   ‚?? ‚?? ‚??   ‚?? ‚??
  F7M 
E|-0-0-0-0-0-0-0-0-0-0-0-0-0-0-0-0-| 
B|-1-1-1-1-1-1-1-1-1-1-1-1-1-1-1-1-| 
G|-2-2-2-2-2-2-2-2-2-2-2-2-2-2-2-2-| 
D|-3-3-3-3-3-3-3-3-3-3-3-3-3-3-3-3-| 
A|-3-3-3-3-3-3-3-3-3-3-3-3-3-3-3-3-| 
E|---------------------------------| 
   ‚?? ‚?? ‚?? ‚?? ‚?? ‚??  ‚?? ‚?? ‚?? ‚?? ‚?? ‚??  ‚?? ‚?? ‚?? ‚??
Ab7M Cm9 Ab7M Gm7(13-) So, it's over now just let it go Ab7M Cm9 Don't be so cold Ebm9 Bbm9 F7M Hate is not the answer ( Eb7M F4 D4 Gm9 ) ( Eb7M F4 D4 Gm9 ) Riff
   Gm9 
E|---------------------------------| 
B|---------------------------------| 
G|------9----------9------9--------| 
D|--12-----12--10-----10-----10----| 
A|---------------------------------| 
E|---------------------------------|
Eb7M F4 D4 Gm9 Ooh ooh ooh Eb7M F4 D4 Gm9 Ooh ooh ooh Eb7M F4 D4 Gm9 Ooh ooh ooh Eb7M F4 D4 Gm9 Ooh ooh ooh Eb7M F4 D4 Gm9 Ooh ooh ooh Eb7M F4 D4 Gm9 Ooh ooh ooh ( Eb7M F4 D4 Gm9 ) ( Eb7M F4 D4 Gm9 ) ( Eb7M F4 D4 )

Written by Thiago Iorczeski

See Also: