E-Chords
Thom Egídio

Saturno(Chords)

Thom Egídio

Key: Dm
Dm7         Am          Gm         A7 

E|--5--5-x-----------x-----------x---------x------| 
B|--6--6-x------5--5-x------3--3-x----5--5-x------| 
G|--5--5-x------5--5-x------3--3-x----6--6-x------| 
D|-------x------5--5-x------3--3-x----5--5-x------| 
A|-5---5-x-----------x-----------x---------x------| 
E|-------x---0-5---5-x---0-3---3-x---5---5-x------| 
Dm7 Am E eu já tô vendo a hora, que eu vou vender tudo Gm A7 Mudar a minha vida, fugir lá pra Saturno Dm7 Am E eu não vou negar, que é você nega Gm A7 Num curto o espaço tempo, um casal de invejar Dm7 Am Não sei dizer como aconteceu Gm Não era coisa que eu ia esperar A7 Foi muito louco entre você e eu Dm7 Acho que nem a NASA pode explicar Am A melhor hora ainda nem chegou Gm E bem mais fácil ir para outro lugar A7 Zé povinho descolar moiou Dm7 Melhor agora é a gente nem pensar Am Vamo esquece, na hora a gente se aquece que nem luz solar Gm A7 Pode, sem medo e se entregar sua mão e em mim confiar Dm7 Am Uma estrela cadente, você sorridente, toda vez me faz pensar Gm A7 Que o pedido mesmo que pequeno, simples e perfeito vai realizar Dm7 Am E eu já tô vendo a hora, que eu vou vender tudo Gm A7 Mudar a minha vida, fugir lá pra Saturno Dm7 Am E eu não vou negar, que é você nega Gm A7 Num curto o espaço tempo, um casal de invejar Dm7 Am Pode passar muito tempo Gm A gente sempre vai ser a mesma coisa A7 Se eu te trombar cê mostra o seu talento Dm7 No ouvido provoca e na cama tá sem roupa Am Que nem Saturno você tem anel Gm Mais esse aí, foi eu quem te deu A7 Rebolou tão bem que merece um nobel Dm7 Não entendi o que aconteceu Am Vamo esquece, na hora a gente se aquece que nem luz solar Gm A7 Pode, sem medo e se entregar sua mão e em mim confiar Dm7 Am Uma estrela cadente, você sorridente, toda vez me faz pensar Gm A7 Que o pedido mesmo que pequeno, simples e perfeito vai realizar Dm7 Am E eu já tô vendo a hora, que eu vou vender tudo Gm A7 Mudar a minha vida, fugir lá pra Saturno Dm7 Am E eu não vou negar, que é você nega Gm A7 Num curto o espaço e o tempo, um casal de invejar Dm7 Am E eu já tô vendo a hora, que eu vou vender tudo Gm A7 Mudar a minha vida, fugir lá pra Saturno Dm7 Am E eu não vou negar, que é você nega Gm A7 Num curto o espaço tempo, um casal de invejar Gm A7 Num curto espaço tempo um casal de invejar
    Dm7         Am          Gm         A7 

E|--5--5-x-----------x-----------x---------x------| 
B|--6--6-x------5--5-x------3--3-x----5--5-x------| 
G|--5--5-x------5--5-x------3--3-x----6--6-x------| 
D|-------x------5--5-x------3--3-x----5--5-x------| 
A|-5---5-x-----------x-----------x---------x------| 
E|-------x---0-5---5-x---0-3---3-x---5---5-x------|

roll up this ad to continue

share this page

See Also: